PrimaNota.ru - самый крупный в мире бесплатный архив песенных текстов, аккордов, табулатур и нот


Electric Wizard - Devils Bride - текст песни, таба, видео

Регистрация Запомнить меня
Войти через:  Facebook Google Twitter Vk Yandex Mail.ru

Electric Wizard - Devils Bride - текст песни, таба, видео

Печатать
Просмотров: 413
----------------------------------------------------------------------------
                             Devil's Bride - Electric Wizard
----------------------------------------------------------------------------

Tabbed by: ironmanben
Email: superclam500@yahoo.com

Sorry there are so many different riffs.

Tuning: Drop C
intro
e|--------------------------------------------------------------------------|
B|--------------------------------------------------------------------------|
G|--------------------------------------------------------------------------|
D|--------------------------------------------------------------------------|
A|--------------------------------------------------------------------------|
D|--9^-(10)~--6^-(7)~-------------------------------------------------------|

riff 1
e|--------------------------------------------------------------------------|
B|--------------------------------------------------------------------------|
G|--------------------------------------------------------------------------|
D|-0---0-0-0-0-0-0-0-0-0-0-0-0-0--------------------------------------------|
A|-0---0-0-0-0-0-0-0-0-0-0-0-0-0--------------------------------------------|
D|-0---0-0-0-0-0-0-0-0-0-0-0-0-0-3^-----------------------------------------|

riff 2
e|---------------------------------------------------------------------------|
B|---------------------------------------------------------------------------|
G|---------------------------------------------------------------------------|
D|-0---0-0-0-0-0-0-0-0-0-0---------------------------------------------------|
A|-0---0-0-0-0-0-0-0-0-0-0-3/5-5-5-------------------------------------------|
D|-0---0-0-0-0-0-0-0-0-0-0---------5^(6)p3-----------------------------------|

riff 3
e|---------------------------------------------------------------------------|
B|---------------------------------------------------------------------------|
G|---------------------------------------------------------------------------|
D|----------/7--/10-/13---5/7-7-7-10-----------------------------------------|
A|----------/5--/8--/11---3/5-5-5-8------------------------------------------|
D|--0---0-0------------------------------------------------------------------|

then:
riff 2
riff 1
riff 2
riff 1
riff 2

riff 4
e|---------------------------------------------------------------------------|
B|---------------------------------------------------------------------------|
G|---------------------------------------------------------------------------|
D|----------------------------------6-5--1-----------------------------------|
A|----------------------------------6-5--1-----------------------------------|
D|-3h5-555-55-3h5-555-55-3h5-555-55-6-5--1-----------------------------------|

riff 5
e|--------------------------------------------------------------------------|
B|--------------------------------------------------------------------------|
G|--------------------------------------------------------------------------|
D|--0~-0-3-4-3-4-3----------------------------------------------------------|
A|--0~-0-3-4-3-4-3----------------------------------------------------------|
D|--0~-0-3-4-3-4-3----------------------------------------------------------|

riff 6
e|--------------------------------------------------------------------------|
B|--------------------------------------------------------------------------|
G|--------------------------------------------------------------------------|
D|--0~-0-3-4-3-10-9---------------------------------------------------------|
A|--0~-0-3-4-3-10-9---------------------------------------------------------|
D|--0~-0-3-4-3-10-9---------------------------------------------------------|

then:
riff 4
riff 5
riff 6
riff 5
riff 6
riff 1
riff 2
riff 1
riff 2
riff 4
riff 5
riff 6
riff 4
riff 5
riff 6
riff 5
riff 6

solo
e|---------------------------------------------------------------------------|
B|---------------------------------------------------------------------------|
G|---------------------------------------------------------------------------|
D|-------------------------12-15-17-17-17^(19)-17-15-12----------------------|
A|-5--8-10-10^(12)-8-5---5---------------------------------------------------|
E|---------------------------------------------------------------------------|

That's all of the solo I figured out.  Maybe I'll get more of it down later.

then:
riff 1
riff 2
riff 3
riff 2
riff 1
riff 2
riff 1
riff 2
riff 4
riff 5
riff 6
riff 4
riff 5
riff 6

e|---------------------------------------------------------------------------|
B|---------------------------------------------------------------------------|
G|---------------------------------------------------------------------------|
D|-0~------------------------------------------------------------------------|
A|-0~------------------------------------------------------------------------|
E|-0~------------------------------------------------------------------------|

e|--------------------------------------------------------------------------|
B|--------------------------------------------------------------------------|
G|--------------------------------------------------------------------------|
D|--0~--4~--3~--7~---6~--1~--0~---------------------------------------------|
A|--0~--4~--3~--7~---6~--1~--0~---------------------------------------------|
E|--0~--4~--3~--7~7^-6~--1~--0~---------------------------------------------|

e|---------------------------------------------------------------------------|
B|---------------------------------------------------------------------------|
G|---------------------------------------------------------------------------|
D|-4~--3~--7~---6~--1~--0~---------------------------------------------------|
A|-4~--3~--7~---6~--1~--0~---------------------------------------------------|
E|-4~--3~--7~7^-6~--1~--0~---------------------------------------------------|

e|---------------------------------------------------------------------------|
B|---------------------------------------------------------------------------|
G|---------------------------------------------------------------------------|
D|-4~--3~--7~---6~--1~--0~---------------------------------------------------|
A|-4~--3~--7~---6~--1~--0~---------------------------------------------------|
E|-4~--3~--7~7^-6~--1~--0~---------------------------------------------------|

continue this a bit longer, then do this


e|---------------------------------------------------------------------------|
B|---------------------------------------------------------------------------|
G|---------------------------------------------------------------------------|
D|-0-000-00-0000-0000-4-444-43-333-3-33-7-777-77-7777-77-6-666-61-111-1-11---|
A|-0-000-00-0000-0000-4-444-43-333-3-33-7-777-77-7777-77-6-666-61-111-1-11---|
E|-0-000-00-0000-0000-4-444-43~333-3-33-7-777-77-7777-77-6-666-61-111-1-11---|

do that a few times, and then go back to this, and play the outro solo over it.  (Outro 
is similar to first solo.)

e|---------------------------------------------------------------------------|
B|---------------------------------------------------------------------------|
G|---------------------------------------------------------------------------|
D|-4~--3~--7~---6~--1~--0~---------------------------------------------------|
A|-4~--3~--7~---6~--1~--0~---------------------------------------------------|
E|-4~--3~--7~7^-6~--1~--0~---------------------------------------------------|


| /  slide up
| \  slide down
| h  hammer-on
| p  pull-off
| ~  vibrato
| +  harmonic
| x  Mute note
===============================================================================
Добавлено: 03.07.2012
Другие материалы по этой песне:
  • Аккорды и текст

Страница создана 04.04.2012
http://primanota.ru/electric-wizard/devils-bride-chords.htm
Привет, Гость.
Предлагаем пройти революционный курс по гитаре.
Подарок от PrimaNota.Ru, забирай!