PrimaNota.ru - самый крупный в мире бесплатный архив песенных текстов, аккордов, табулатур и нот


Electric Wizard - Funeralpolis - таба, видео

Регистрация Запомнить меня
Войти через:  Facebook Google Twitter Vk Yandex Mail.ru

Electric Wizard - Funeralpolis - таба, видео

Печатать
Просмотров: 397
Уроки эстрадного вокала в Санкт-Петербурге
-------------------------------------------------------------------------------
                             Funeralpolis - Electric Wizard
-------------------------------------------------------------------------------
Tabbed by: DehumanizeR
Email: stivharris@hotmail.com

Tuning: A#
Album: Dopethrone
Label: Rise Above

Riff 1a (light distortion)
|-----------------------------------------------------------------------------|
|-----------------------------------------------------------------------------|
|-----------------------------------------------------------------------------|
|-----------------------------------------------------------------------------|
|-----------------------------------------------------------------------------|
|-12---12---12-10h12-12-12---12--10h12--12--12p10/8-8~---8--8---0--5--55-5-5/-|


Riff 1b (heavy distortion)
|------------------------------------------------------------|
|------------------------------------------------------------|
|------------------------------------------------------------|
|------------------------------------------------------------|
|-14---14---14-12/14-14-14---14--12/14--14--14/12/1010b---7/-|
|-12---12---12-10/12-12-12---12--10/12--12--12/10/8-8b----5/-|


Riff 2
|---------------------------------------------------------------------|
|---------------------------------------------------------------------|
|---------------------------------------------------------------------|
|----------------------------------------------------------------5~---|
|-7----8--6~-----7----8--6~-----7----8---6~----6-5h7-7-7---7-5h7------|
|-0--------------0--------------0-------------------------------------|


Riff 3a                            Riff 3b
|---------------------------------|----------------------------------|
|---------------------------------|----------------------------------|
|---------------------------------|----------------------------------|
|---------------------------------|----------------------------------|
|---------------------------------|----2--2-2-8-7---2-8-7--2-5-7--7--|
|-0--0-0-6-5---0-6-5--0-3-5--5----|----0--0-0-6-5---0-6-5--0-3-5--5--|


Riff 4
|-------------------------------------|
|-------------------------------------|
|-------------------------------------|
|-------------------------------------|
|-2-2-2-2-2-2-2-----------------------|
|-0-0-0-0-0-0-0---0-0-0/15~---0/12~---|

| /  slide
| h  hammer-on
| p  pull-off
| ~  vibrato
| .  palm mute
| x  mute note
| b  bend
Добавлено: 11.03.2012
Другие материалы по этой песне:
  • Аккорды и текст

Страница создана 11.03.2012
http://primanota.ru/electric-wizard/funeralpolis-chords.htm
Привет, Гость.
Предлагаем пройти революционный курс по гитаре.
Подарок от PrimaNota.Ru, забирай!