PrimaNota.ru - самый крупный в мире бесплатный архив песенных текстов, аккордов, табулатур и нот


Eisbrecher - Prototyp - текст песни, таба, видео

Регистрация Запомнить меня
Войти через:  Facebook Google Twitter Vk Yandex Mail.ru

Eisbrecher - Prototyp - текст песни, таба, видео

Печатать
Просмотров: 385
Уроки эстрадного вокала в Санкт-Петербурге
PM: Palm Mute

Chorus

(x2)
D-----------------------------------------------|         
A-----------------------------------------------|        
F-----------------------------------------------|        
C--5-5-5-5-5-5-5--5-5-5-5-5-5-7-7-7-7-7-7-7h8/2-|        
G--5-5-5-5-5-5-5--5-5-5-5-5-5-7-7-7-7-7-7-7h8/2-|        
C--5-5-5-5-5-5-5--5-5-5-5-5-5-7-7-7-7-7-7-7h8/2-|         

D----------------------------|          
A----------------------------|          
F----------------------------|          
C--2-2-0-2-2-0-2-2-0-2-2-0/5-|          
G--2-2-0-2-2-0-2-2-0-2-2-0/5-|          
C--2-2-0-2-2-0-2-2-0-2-2-0/5-|

(x1)
D----------------------------------------------|          
A----------------------------------------------|        
F----------------------------------------------|        
C--5-5-5-5-5-5-5-5-5-5-5-5-5-7-7-7-7-7-7-7h8/2-|        
G--5-5-5-5-5-5-5-5-5-5-5-5-5-7-7-7-7-7-7-7h8/2-|        
C--5-5-5-5-5-5-5-5-5-5-5-5-5-7-7-7-7-7-7-7h8/2-|                  

D--------------------------------|          
A--------------------------------|          
F--------------------------------|    
C--2222-0-2222-0-2222-0-2222-0/5-|          
G--2222-0-2222-0-2222-0-2222-0/5-|          
C--2222-0-2222-0-2222-0-2222-0/5-| 
   PMPM   PMPM   PMPM   PMPM

(x2)
D-----------------------------------------------|         
A-----------------------------------------------|        
F-----------------------------------------------|        
C--5-5-5-5-5-5-5--5-5-5-5-5-5-7-7-7-7-7-7-7h8/2-|        
G--5-5-5-5-5-5-5--5-5-5-5-5-5-7-7-7-7-7-7-7h8/2-|        
C--5-5-5-5-5-5-5--5-5-5-5-5-5-7-7-7-7-7-7-7h8/2-|         

D----------------------------|          
A----------------------------|          
F----------------------------|          
C--2-2-0-2-2-0-2-2-0-2-2-0/5-|          
G--2-2-0-2-2-0-2-2-0-2-2-0/5-|          
C--2-2-0-2-2-0-2-2-0-2-2-0/5-|

Prechorus 
D----------------------------------------------|          
A----------------------------------------------|          
F----------------------------------------------|          
C--2-2--2--5-5--5--7-7--7--5-5--5--2-2--2—-xx2x|          
G--2-2--2--5-5--5--7-7--7--5-5--5--2-2--2—-xx2x|          
C--2-2--2--5-5--5--7-7--7--5-5--5--2-2--2--xx2x|          

Chorus

(x2)
D-----------------------------------------------|         
A-----------------------------------------------|        
F-----------------------------------------------|        
C--5-5-5-5-5-5-5--5-5-5-5-5-5-7-7-7-7-7-7-7h8/2-|        
G--5-5-5-5-5-5-5--5-5-5-5-5-5-7-7-7-7-7-7-7h8/2-|        
C--5-5-5-5-5-5-5--5-5-5-5-5-5-7-7-7-7-7-7-7h8/2-|         

D----------------------------|          
A----------------------------|          
F----------------------------|          
C--2-2-0-2-2-0-2-2-0-2-2-0/5-|          
G--2-2-0-2-2-0-2-2-0-2-2-0/5-|          
C--2-2-0-2-2-0-2-2-0-2-2-0/5-|

(x1)
D----------------------------------------------|          
A----------------------------------------------|        
F----------------------------------------------|        
C--5-5-5-5-5-5-5-5-5-5-5-5-5-7-7-7-7-7-7-7h8/2-|        
G--5-5-5-5-5-5-5-5-5-5-5-5-5-7-7-7-7-7-7-7h8/2-|        
C--5-5-5-5-5-5-5-5-5-5-5-5-5-7-7-7-7-7-7-7h8/2-|                  

D--------------------------------|          
A--------------------------------|          
F--------------------------------|    
C--2222-0-2222-0-2222-0-2222-0/5-|          
G--2222-0-2222-0-2222-0-2222-0/5-|          
C--2222-0-2222-0-2222-0-2222-0/5-| 
   PMPM   PMPM   PMPM   PMPM

(x2)
D-----------------------------------------------|         
A-----------------------------------------------|        
F-----------------------------------------------|        
C--5-5-5-5-5-5-5--5-5-5-5-5-5-7-7-7-7-7-7-7h8/2-|        
G--5-5-5-5-5-5-5--5-5-5-5-5-5-7-7-7-7-7-7-7h8/2-|        
C--5-5-5-5-5-5-5--5-5-5-5-5-5-7-7-7-7-7-7-7h8/2-|         

D----------------------------|          
A----------------------------|          
F----------------------------|          
C--2-2-0-2-2-0-2-2-0-2-2-0/5-|          
G--2-2-0-2-2-0-2-2-0-2-2-0/5-|          
C--2-2-0-2-2-0-2-2-0-2-2-0/5-|

Interlude 
D------------------------------------------------------------------------|          
A------------------------------------------------------------------------|          
F------------------------------------------------------------------------|          
C-2-2--2---0-0--0---5-5--5---5-5--5—--2-2--2---0-0--0---5-5--5---4-4--4--|          
G-2-2--2---0-0--0---5-5--5---5-5--5---2-2--2---0-0--0---5—5--5---4-4—-4—-|          
C-2-2—-2---0-0--0---5-5--5---5-5--5—--2-2--2---0-0--0---5-5--5---4-4—-4—-|

D----------------------------------------------|          
A----------------------------------------------|        
F----------------------------------------------|        
C--0-0--0---5-5--5---5-5--5---2-2--2-----------|        
G--0-0--0---5-5--5---5-5--5---2-2—-2-----------|        
C--0-0--0---5-5--5---5-5--5---2-2--2---5-5--5--|         
                                       PMPMPM
Chorus
(x2)
D-----------------------------------------------|         
A-----------------------------------------------|        
F-----------------------------------------------|        
C--5-5-5-5-5-5-5--5-5-5-5-5-5-7-7-7-7-7-7-7h8/2-|        
G--5-5-5-5-5-5-5--5-5-5-5-5-5-7-7-7-7-7-7-7h8/2-|        
C--5-5-5-5-5-5-5--5-5-5-5-5-5-7-7-7-7-7-7-7h8/2-|         

D----------------------------|          
A----------------------------|          
F----------------------------|          
C--2-2-0-2-2-0-2-2-0-2-2-0/5-|          
G--2-2-0-2-2-0-2-2-0-2-2-0/5-|          
C--2-2-0-2-2-0-2-2-0-2-2-0/5-|

(x1)
D----------------------------------------------|          
A----------------------------------------------|        
F----------------------------------------------|        
C--5-5-5-5-5-5-5-5-5-5-5-5-5-7-7-7-7-7-7-7h8/2-|        
G--5-5-5-5-5-5-5-5-5-5-5-5-5-7-7-7-7-7-7-7h8/2-|        
C--5-5-5-5-5-5-5-5-5-5-5-5-5-7-7-7-7-7-7-7h8/2-|                  

D--------------------------------|          
A--------------------------------|          
F--------------------------------|    
C--2222-0-2222-0-2222-0-2222-0/5-|          
G--2222-0-2222-0-2222-0-2222-0/5-|          
C--2222-0-2222-0-2222-0-2222-0/5-| 
   PMPM   PMPM   PMPM   PMPM

(x2)
D-----------------------------------------------|         
A-----------------------------------------------|        
F-----------------------------------------------|        
C--5-5-5-5-5-5-5--5-5-5-5-5-5-7-7-7-7-7-7-7h8/2-|        
G--5-5-5-5-5-5-5--5-5-5-5-5-5-7-7-7-7-7-7-7h8/2-|        
C--5-5-5-5-5-5-5--5-5-5-5-5-5-7-7-7-7-7-7-7h8/2-|         

D----------------------------|          
A----------------------------|          
F----------------------------|          
C--2-2-0-2-2-0-2-2-0-2-2-0/5-|          
G--2-2-0-2-2-0-2-2-0-2-2-0/5-|          
C--2-2-0-2-2-0-2-2-0-2-2-0/5-|

END
Добавлено: 08.09.2013
Другие материалы по этой песне:
  • Аккорды и текст

Страница создана 08.09.2013
http://primanota.ru/eisbrecher/prototyp-chords.htm
Привет, Гость.
Предлагаем пройти революционный курс по гитаре.
Подарок от PrimaNota.Ru, забирай!