PrimaNota.ru - самый крупный в мире бесплатный архив песенных текстов, аккордов, табулатур и нот


Eisbrecher - Himmel Arsch Und Zwirn - бас-таба, видео

Регистрация Запомнить меня
Войти через:  Facebook Google Twitter Vk Yandex Mail.ru

Eisbrecher - Himmel Arsch Und Zwirn - бас-таба, видео

Печатать
Просмотров: 157
Авторы музыки: Noel Pix, Rupert Keplinger
Авторы текста: Alex Wesselsky
Eisbrecher - Himmel, Arsch und Zwirn (Bass Tab)

Intro

G|----------------|----------------|
D|----------------|----------------|
A|----------------|----------------| 4x
E|---7----------57|---7------------|
B|-0--0-0-50-60---|-0--0-0-55356666|

G|----------------|
D|----------------|
A|----------------|
E|----------------|
B|-0--------------|

Vers:

G|----------------|----------------|----------------|----------------|
D|----------------|----------------|----------------|----------------|
A|----------------|----------------|----------------|----------------|
E|----------------|----------------|----------------|----------------|
B|-000-0-0-0-0-0-0|-000-0-0-0-0-0-0|-0-0-0-0-0-0-0-0|-000-0-0-0-0-0-0|
                                                                         2x
G|----------------|----------------|----------------|----------------|
D|----------------|----------------|----------------|----------------|
A|----------------|----------------|----------------|----------------|
E|----------------|----------------|----------------|-555-5-5-5-5-5-5|
B|-333-3-3-3-3-3-3|-222-2-2-1-1-1-1|-000-0-0-0-0-0-0|----------------|

Pre-Chorus:

 4 bars break
 ||
 \/
G|----------------|----------------|----------------|----------------|
D|----------------|----------------|----------------|----------------|
A|----------------|----------------|----------------|----------------|
E|----------------|----------------|----------------|----------------|
B|----------------|----------------|----------------|----------------|

G|----------------|----------------|----------------|----------------|
D|----------------|----------------|----------------|----------------|
A|----------------|----------------|----------------|----------------|
E|7777777777777777|5555555555555555|0000000000000000|3333333333333333|
B|----------------|----------------|----------------|----------------|

Chorus:

G|----------------|----------------|
D|----------------|----------------|
A|----------------|----------------| 4x
E|---7----------57|---7------------|
B|-0--0-0-50-60---|-0--0-0-55356666|

G|----------------|
D|----------------|
A|----------------|
E|----------------|
B|-0--------------|

Bridge:

G|----------------|----------------|----------------|----------------|
D|----------------|----------------|----------------|----------------|
A|----------------|----------------|----------------|----------------|
E|----------------|----------------|----------------|----------------|
B|-00-----00------|-00-----00-00-00|-00-----00------|-00-----00-00-00|

G|----------------|----------------|----------------|----------------|
D|----------------|----------------|----------------|----------------|
A|----------------|----------------|----------------|----------------|
E|----------------|----------------|----------------|----------------|
B|0000000022222222|3333333322222222|0000000022222222|3333333322222222|

G|----------------|----------------|----------------|----------------|
D|----------------|----------------|----------------|----------------|
A|----------------|----------------|----------------|----------------|
E|----------------|----------------|----------------|----------------|
B|0000000022222222|3333333322222222|0000000022222222|3333333322222222|

Last Chorus:

G|----------------|----------------|
D|----------------|----------------|
A|----------------|----------------| 4x
E|---7----------57|---7------------|
B|-0--0-0-50-60---|-0--0-0-55356666|

G|----------------|----------------|
D|----------------|----------------|
A|----------------|----------------| 2x
E|----------------|----------------|
B|-----0-------0--|-----0--55356666|

G|----------------|
D|----------------|
A|----------------|
E|----------------|
B|-0--------------|
Добавлено: 15.08.2015
Другие материалы по этой песне:

Страница создана 15.08.2015
http://primanota.ru/eisbrecher/himmel-arsch-und-zwirn-chords.htm
Привет, Гость.
Предлагаем пройти революционный курс по гитаре.
Подарок от PrimaNota.Ru, забирай!