PrimaNota.ru - самый крупный в мире бесплатный архив песенных текстов, аккордов, табулатур и нот


Eisbrecher - Zu Sterben - текст песни, таба, видео

Регистрация Запомнить меня
Войти через:  Facebook Google Twitter Vk Yandex Mail.ru

Eisbrecher - Zu Sterben - текст песни, таба, видео

Печатать
Просмотров: 317
Intro Chorus

D-----------------------|         
A-----------------------|        
F-----------------------|        
C—10-------8------3-----|        
G—10-(x16)-8-(x8)-3-(x7)|        
C—10-------8------3-----|  

D-----------------------|         
A-----------------------|        
F----------8------------|        
C-10-------8-(x8)-6-----|        
G-10-(x16)-6------6-(x7)|        
C-10--------------6-----|     

First Chorus (X2)
D-----------------------|         
A-----------------------|        
F-----------------------|        
C—10-------8------3-----|        
G—10-(x16)-8-(x8)-3-(x7)|        
C—10-------8------3-----|  

D-----------------------|         
A-----------------------|        
F----------8------------|        
C-10-------8-(x8)-6-----|        
G-10-(x16)-6------6-(x7)|        
C-10--------------6-----|     

Second Chorus (X2)
D-----------------------|         
A-----------------------|        
F-----------------------|        
C—10-------8------3-----|        
G—10-(x16)-8-(x8)-3-(x7)|        
C—10-------8------3-----|  

D-----------------------|         
A-----------------------|        
F----------8------------|        
C-10-------8-(x8)-6-----|        
G-10-(x16)-6------6-(x7)|        
C-10--------------6-----|     
 
Pre solo (x2)
D----------------------------------------------------|            
A----------------------------------------------------|        
F----------------------------------------------------|        
C-6-------5-------10-------10h12-12-12-12-12-10-10-10|        
G-6--(x8)-5--(x8)-10--(x7)-10h12-12-12-12-12-10-10-10|        
C-6-------5-------10-------10h12-12-12-12-12-10-10-10|   

Solo

(x3)

D------------------------------------|            
A------------------------------------|        
F-10------12--------8-------7-8-7----|        
C-x—(x4)--x---(x4)--x—(x4)--x-x-x----|        
G-8-------10--------6-------5-6-5----|        
C------------------------------------|   

D----------------------------|            
A----------------------------|        
F-10------12--------5--------|        
C-x—(x4)--x---(x4)--x—(x8)---|        
G-8-------10--------3--------|        
C----------------------------|   

Third Chorus (x2)     

D-----------------------|         
A-----------------------|        
F-----------------------|        
C—10-------8------3-----|        
G—10-(x16)-8-(x8)-3-(x7)|        
C—10-------8------3-----|  

D-----------------------|         
A-----------------------|        
F----------8------------|        
C-10-------8-(x8)-6-----|        
G-10-(x16)-6------6-(x7)|        
C-10--------------6-----|     

End
Добавлено: 07.09.2013
Другие материалы по этой песне:
  • Аккорды и текст

Страница создана 07.09.2013
http://primanota.ru/eisbrecher/zu-sterben-chords.htm
Привет, Гость.
Предлагаем пройти революционный курс по гитаре.
Подарок от PrimaNota.Ru, забирай!