PrimaNota.ru - самый крупный в мире бесплатный архив песенных текстов, аккордов, табулатур и нот


Eisbrecher - So Oder So - таба, видео

Регистрация Запомнить меня
Войти через:  Facebook Google Twitter Vk Yandex Mail.ru

Eisbrecher - So Oder So - таба, видео

Печатать
Просмотров: 264
Уроки эстрадного вокала в Санкт-Петербурге
Авторы музыки: Noel Pix
Авторы текста: André Buchmann, Alex Wesselsky
Eisbrecher 
So Oder So

**This song is under Drop D** Taken from the video Thecoverguitarist

Intro

E-----------------------------------|     
B-----------------------------------|        
G-----------------------------------|        
D--00-12-00-10-0--12-10-12-13-12----|        
A--00-12-00-10-0--12-10-12-13-12----|        
E--00-12-00-10-0--12-10-12-13-12----|
   PM    PM    PM

Intro (x7)

E---------------------------------|       
B---------------------------------|        
G---------------------------------|        
D---12-00-10-0--12-10-12-13-12----|        
A---12-00-10-0--12-10-12-13-12----|        
E---12-00-10-0--12-10-12-13-12----|
       PM    PM

Pre Chorus (x4)

E-----------------|       
B-----------------|        
G-----------------|        
D--10-12-13-12----|        
A--10-12-13-12----|        
E--10-12-13-12----|

Chorus 

(x3)

E---------------------------------|       
B---------------------------------|        
G---------------------------------|        
D---12-00-10-0--12-10-12-13-12----|        
A---12-00-10-0--12-10-12-13-12----|        
E---12-00-10-0--12-10-12-13-12----|

(x1)

E------------------------|        
B------------------------|        
G------------------------|        
D-8-------7------12------|        
A-8(x10)--7(x8)--12(x6)--|        
E-8-------7------12------|

(x3)

E---------------------------------|       
B---------------------------------|        
G---------------------------------|        
D---12-00-10-0--12-10-12-13-12----|        
A---12-00-10-0--12-10-12-13-12----|        
E---12-00-10-0--12-10-12-13-12----|

(x1)

E------------------------|        
B------------------------|        
G------------------------|        
D-8-------7------12------|        
A-8(x10)--7(x8)--12(x6)--|        
E-8-------7------12------|

Pre Chorus(x4)

E-----------------|       
B-----------------|        
G-----------------|        
D--10-12-13-12----|        
A--10-12-13-12----|        
E--10-12-13-12----|

Chorus 

(x3)

E---------------------------------|       
B---------------------------------|        
G---------------------------------|        
D---12-00-10-0--12-10-12-13-12----|        
A---12-00-10-0--12-10-12-13-12----|        
E---12-00-10-0--12-10-12-13-12----|

(x1)

E------------------------|        
B------------------------|        
G------------------------|        
D-8-------7------12------|        
A-8(x10)--7(x8)--12(x6)--|        
E-8-------7------12------|

(x3)

E---------------------------------|       
B---------------------------------|        
G---------------------------------|        
D---12-00-10-0--12-10-12-13-12----|        
A---12-00-10-0--12-10-12-13-12----|        
E---12-00-10-0--12-10-12-13-12----|

(x1)

E------------------------|        
B------------------------|        
G------------------------|        
D-8-------7------12------|        
A-8(x10)--7(x8)--12(x6)--|        
E-8-------7------12------|

Solo (x2)

E---------------------------------------------------|     
B---------------------------------------------------|        
G------------66--66--4---55--55--5------------------|        
D-00--00--0--66--66--4---55--55--5--77--7-3-2-------|        
A-00--00--0--44--44--4---33--33--3--77--7-3-2-------|        
E-00--00--0-------------------------77--7-3-2-------|

Chorus 

(x3)

E---------------------------------|       
B---------------------------------|        
G---------------------------------|        
D---12-00-10-0--12-10-12-13-12----|        
A---12-00-10-0--12-10-12-13-12----|        
E---12-00-10-0--12-10-12-13-12----|

(x1)

E------------------------|        
B------------------------|        
G------------------------|        
D-8-------7------12------|        
A-8(x10)--7(x8)--12(x6)--|        
E-8-------7------12------|

(x3)

E---------------------------------|       
B---------------------------------|        
G---------------------------------|        
D---12-00-10-0--12-10-12-13-12----|        
A---12-00-10-0--12-10-12-13-12----|        
E---12-00-10-0--12-10-12-13-12----|

(x1)

E------------------------|        
B------------------------|        
G------------------------|        
D-8-------7------12------|        
A-8(x10)--7(x8)--12(x6)--|        
E-8-------7------12------|

END
Добавлено: 06.04.2016
Вам также может быть интересно:
Другие материалы по этой песне:
  • Аккорды и текст

Страница создана 06.04.2016
http://primanota.ru/eisbrecher/so-oder-so-chords.htm
Привет, Гость.
Предлагаем пройти революционный курс по гитаре.
Подарок от PrimaNota.Ru, забирай!