PrimaNota.ru - самый крупный в мире бесплатный архив песенных текстов, аккордов, табулатур и нот


Drudkh - Summoning The Rain - таба, видео

Регистрация Запомнить меня
Войти через:  Facebook Google Twitter Vk Yandex Mail.ru

Drudkh - Summoning The Rain - таба, видео

Печатать
Просмотров: 212
Album: Autumn Aurora
DRUDKH

Tuning E A D G B E

1ST RIFF
|-----------------------------------------------------------|
|-----------------------------------------------------------|
|-----------------------------------------------------------|
|---2-------4--------7----------3---------------------------|
|---2-------2--------5----------2---------------------------|
|---0-------0--------0----------0---------------------------|

2ND RIFF
|---------------------------------------------------------------------------------|
|----------------8----9-----------------------------7-------8---------------------|
|----------9-----------------10^-------------8------------------9^----------------|
|---11-----------------------------10---------------------------------------------|
|----------------------------------------------------------------------------=----|
|---------------------------------------------------------------------------------|

2ND RIFF B
-9-10^--11-10-9-8--9--8--7-8--7-8-7--6-7--6--7^----------------|
---------------------------------------------------------------|
---------------------------------------------------------------|
---------------------------------------------------------------|
---------------------------------------------------------------|
---------------------------------------------------------------|

3RD RIFF - FILL
|--------------------------------------------------------|
|--------------------------------------------------------|
|--------------------------------------------------------|
|----2--------1------------------------------------------|
|----2--------1------------------------------------------|
|----0--------0------------------------------------------|
Добавлено: 29.04.2012
Другие материалы по этой песне:

Страница создана 29.04.2012
http://primanota.ru/drudkh/summoning-the-rain-chords.htm
Привет, Гость.
Предлагаем пройти революционный курс по гитаре.
Подарок от PrimaNota.Ru, забирай!