PrimaNota.ru - самый крупный в мире бесплатный архив песенных текстов, аккордов, табулатур и нот


Drudkh - Eternal Sun - текст песни, таба, видео

Регистрация Запомнить меня
Войти через:  Facebook Google Twitter Vk Yandex Mail.ru

Drudkh - Eternal Sun - текст песни, таба, видео

Печатать
Просмотров: 143
-------------------------------
Drudkh - Eternal Sun
-------------------------------
Tabbed by: Markus Rafferty
Email: stairsleadingu@gmail.com

Tuning: Standard

e|---------------------------------------------------------------------------|
B|-5-5-5-5--5-5-5-5--5-5-5-5--5-5-5-5--5-5-5-5--5-5-5-5--5-5-5-5--5-5-5-5-/6-|
G|-7-7-7-7--7-7-7-7--7-7-7-7--7-7-7-7--6-6-6-6--6-6-6-6--6-6-6-6--6-6-6-6-/7-|
D|-0-0-0-0--0-0-0-0--0-0-0-0--0-0-0-0--0-0-0-0--0-0-0-0--0-0-0-0--0-0-0-0--0-|
A|---------------------------------------------------------------------------|
E|---------------------------------------------------------------------------|

e|---------------------------------------------------------------------------|
B|-6-6-6--6-6-6-6--6-6-6-6--6-6-6-6-/8-8-8-8--8-8-8-8--8-8-8-8--8-8-8-8--6-6-|
G|-7-7-7--7-7-7-7--7-7-7-7--7-7-7-7-/9-9-9-9--9-9-9-9--9-9-9-9--9-9-9-9--4-4-|
D|-0-0-0--0-0-0-0--0-0-0-0--0-0-0-0--0-0-0-0--0-0-0-0--0-0-0-0--0-0-0-0--0-0-|
A|---------------------------------------------------------------------------|
E|---------------------------------------------------------------------------|

e|---------------------------------------------------------------------------|
B|-6-6--6-6-6-6--6-6-6-6--6-6-6-6--6-6-6-6--6-6-6-6--6-6-6-6--6-6-6-6--6-6-6-|
G|-4-4--4-4-4-4--4-4-4-4--4-4-4-4--2-2-2-2--2-2-2-2--2-2-2-2--2-2-2-2--0-0-0-|
D|-0-0--0-0-0-0--0-0-0-0--0-0-0-0--0-0-0-0--0-0-0-0--0-0-0-0--0-0-0-0--0-0-0-|
A|---------------------------------------------------------------------------|
E|---------------------------------------------------------------------------|

e|---------------------------------------------------------------------------|
B|-6--6-6-6-6--6-6-6-6--6-6-6-6--6-6-6-6--6-6-6-6--6-6-6-6--6-6-6-6----------|
G|-0--0-0-0-0--0-0-0-0--0-0-0-0--2-2-2-2--2-2-2-2--2-2-2-2--2-2-2-2----------|
D|-0--0-0-0-0--0-0-0-0--0-0-0-0--0-0-0-0--0-0-0-0--0-0-0-0--0-0-0-0----------|
A|---------------------------------------------------------------------------|
E|---------------------------------------------------------------------------|


e|---------------------------------------------------------------------------|
B|---------------------------------------------------------------------------|
G|-/11-11-11-11--11-11-11-11--11-11-11-11--11-11-11-11--14-14-14-14--14-14-14|
D|--/9--9--9--9---9--9--9--9---9--9--9--9---9--9--9--9--12-12-12-12--12-12-12|
A|---0--0--0--0---0--0--0--0---0--0--0--0---0--0--0--0---0--0--0--0---0--0--0|
E|---------------------------------------------------------------------------|

e|---------------------------------------------------------------------------|
B|---------------------------------------------------------------------------|
G|-14--16-16-16-16--14-14-14-14--11-11-11-11--11-11-11-11--11-11-11-11--11-11|
D|-12--12-12-12-12--12-12-12-12---9--9--9--9---9--9--9--9---9--9--9--9---9--9|
A|--0---0--0--0--0---0--0--0--0---0--0--0--0---0--0--0--0---0--0--0--0---0--0|
E|---------------------------------------------------------------------------|

e|---------------------------------------------------------------------------|
B|---------------------------------------------------------------------------|
G|-11-11--7-7-7-5--5-5-5-5--5-5-5-5--5-5-5-5---------------------------------|
D|--9--9--5-5-5-3--3-3-3-3--3-3-3-3--3-3-3-3---------------------------------|
A|--0--0--0-0-0-0--0-0-0-0--0-0-0-0--0-0-0-0---------------------------------|
E|---------------------------------------------------------------------------|


e|-0--0-0-0--0--0-0-5-5-5--5-5-7--7--0-0-0-0-0--0-0-0--0--0-0-5--5--5-5-7--7-|
B|-0--0-0-0--0--0-0-5-5-5--5-5-5--5--6-6-0-0-0--0-0-0--0--0-0-5--5--5-5-5--5-|
G|-5--5-5-5--5--5-5-5-5-5--5-5-5--5--5-5-5-5-5--5-5-5--5--5-5-5--5--5-5-5--5-|
D|---------------------------------------------------------------------------|
A|-0--0---0--0--0---0---0--0---0--0--0---0---0--0---0--0--0---0--0--0---0--0-|
E|---------------------------------------------------------------------------|

e|-0-0-0-0-0--0-0-0--0--0-0-1-1-1--1-1-1--1--1-------------------------------|
B|-6-6-0-0-0--0-0-0--0--0-0-0-0-0--0-0-0--0--0-0-0h1-1--1-1-1--1--1-1-0-0-0--|
G|-5-5-5-5-0--0-0-0--0--0-0-0-0-0--0-0-0--0--0-2-2---2--2-2-2--2--2-2-2-2-2--|
D|---------------------------------------------3-3---3--3-3-3--3--3-3-3-3-3--|
A|-0---0---------------------------------------------------------------------|
E|---------------------------------------------------------------------------|

e|-------------------0--0-0-0--0--0-0-5-5-5--5-5-7--7--0-0-0-0-0--0-0-0--0--0|
B|0-0-3-3-3--0-0-0-0-0--0-0-0--0--0-0-5-5-5--5-5-5--5--6-6-0-0-0--0-0-0--0--0|
G|2-2-2-2-2--2-2-2-2-5--5-5-5--5--5-5-5-5-5--5-5-5--5--5-5-5-5-5--5-5-5--5--5|
D|3-3-3-3-3--3-3-3-3---------------------------------------------------------|
A|-------------------0--0---0--0--0---0---0--0---0--0--0---0---0--0---0--0--0|
E|---------------------------------------------------------------------------|

e|--0-5--5--5-5-7--7--0-0-0-0-0--0-0-0--0--0-0-1-1-1--1-1-1--1--1------------|
B|--0-5--5--5-5-5--5--6-6-0-0-0--0-0-0--0--0-0-0-0-0--0-0-0--0--0-0-0h1-1--1-|
G|--5-5--5--5-5-5--5--5-5-5-5-0--0-0-0--0--0-0-0-0-0--0-0-0--0--0-2-2---2--2-|
D|----------------------------------------------------------------3-3---3--3-|
A|----0--0--0---0--0--0---0--------------------------------------------------|
E|---------------------------------------------------------------------------|

e|---------------------------------------------------------------------------|
B|-1-1--1--1-1-0-0-0--0-0-0-0-0--0-0-0-0-------------------------------------|
G|-2-2--2--2-2-2-2-2--2-2-1-1-1--1-1-1-1-------------------------------------|
D|-3-3--3--3-3-3-3-3--3-3-2-2-2--2-2-2-2-------------------------------------|
A|---------------------------------------------------------------------------|
E|---------------------------------------------------------------------------|


e|-2--2-2-2--2--2-2-2/4-4--4-4-4--4--4-4-0-0-0--0-0-0--0--0-0-0--------------|
B|-5--5-5-5--5--5-5-5/7-7--7-7-7--7--7-7-3-3-3--3-3-3--3--3-3-3-T-T--T-T-9-9-|
G|-4--4-4-4--4--4-4-4/6-6--6-6-6--6--6-6-2-2-2--2-2-2--2--2-2-2-7-7--7-7-6-6-|
D|-0--0-0-0--0--0-0-0---0--0-0-0--0--0-0-0-0-0--0-0-0--0--0-0-0-0-0--0-0-0-0-|
A|---------------------------------------------------------------------------|
E|---------------------------------------------------------------------------|

e|-------------2--2-2-2--2--2-2-2/4-4--4-4-4--4--4-4-4-5-5--5-5-5--5--5-5-5/7|
B|-9\7-7-7-7-7-5--5-5-5--5--5-5-5/7-7--7-7-7--7--7-7-7-3-3--3-3-3--3--3-3-3/5|
G|-6\4-4-4-4-4-4--4-4-4--4--4-4-4/6-6--6-6-6--6--6-6-6-2-2--2-2-2--2--2-2-2/4|
D|-0---0-0-0-0-0--0-0-0--0--0-0-0---0--0-0-0--0--0-0-0-0-0--0-0-0--0--0-0-0--|
A|---------------------------------------------------------------------------|
E|---------------------------------------------------------------------------|

e|-7--7-7-5-5-5/7-7-7-7-7----------------------------------------------------|
B|-5--5-5-3-3-3/5-5-5-5-5----------------------------------------------------|
G|-4--4-4-2-2-2/4-4-4-4-4----------------------------------------------------|
D|-0--0-0-0-0-0---0-0-0-0----------------------------------------------------|
A|---------------------------------------------------------------------------|
E|---------------------------------------------------------------------------|


e|-------12-13-15-13--12-13-12-----------------12-13-15-13--12-13-12-15-12-12|
B|----13-----------------------13-15-13-----13-------------------------------|
G|-14------------------------------------14----------------------------------|
D|---------------------------------------------------------------------------|
A|---------------------------------------------------------------------------|
E|---------------------------------------------------------------------------|

e|-------12-13-15-13--12-13-12-----------------12-13-15-13--17-13-17-13-17-13|
B|----13-----------------------13-15-13-----13-------------------------------|
G|-14------------------------------------14----------------------------------|
D|---------------------------------------------------------------------------|
A|---------------------------------------------------------------------------|
E|---------------------------------------------------------------------------|


e|---------------------------------------------------------------------------|
B|-/18-17--13-13~---/18-17--10-10~---/13-12--8-8-8/10------------------------|
G|---x--x---x--x------x--x---x--x------x--x--x-x-x--x--10-10-10--9--5--5--/--|
D|-/15-15--10-10~---/15-15---7--7~---/10-10--5-5-5-/7---x--x--x--x--x--x-----|
A|------------------------------------------------------8--8--8--8--3--3--/--|
E|---------------------------------------------------------------------------|


e|-------17-12-17-13--17----17-12-17-15-17-----17-12-17-13-17--17-15-13-12---|
B|----15-----------------15-----------------15-------------------------------|
G|-14----------------------------------------------------------------------15|
D|---------------------------------------------------------------------------|
A|---------------------------------------------------------------------------|
E|---------------------------------------------------------------------------|

e|-------17-12-17-13--17----17-15-17-12-17-----17-15-17-12-17--13-12---------|
B|----15-------------------------------------------------------------15----13|
G|-14--------------------14----------------14---------------------------14---|
D|---------------------------------------------------------------------------|
A|---------------------------------------------------------------------------|
E|---------------------------------------------------------------------------|
Добавлено: 18.03.2012
Другие материалы по этой песне:
  • Аккорды и текст

Страница создана 18.03.2012
http://primanota.ru/drudkh/eternal-sun-chords.htm
Привет, Гость.
Предлагаем пройти революционный курс по гитаре.
Подарок от PrimaNota.Ru, забирай!