PrimaNota.ru - самый крупный в мире бесплатный архив песенных текстов, аккордов, табулатур и нот


Drudkh - Sunwheel - таба, видео

Регистрация Запомнить меня
Войти через:  Facebook Google Twitter Vk Yandex Mail.ru

Drudkh - Sunwheel - таба, видео

Печатать
Просмотров: 175
Album: Glare Of Autumn
    Song:  Sunwheel      
    Copyright (c) Supernal Music 2004
    Version 1.0 - 017/10/2007
    Transcribed By: Elathen
    Email:              ningalia87@yahoo.com


.  - palm mute           /  - slide up to
\  - slide down to       ~  - vibrato

h  - hammer on           b  - Bend
p  - pull off            Suffixes for bend
t  - tap                 f  - full bend    h - half bend
ph - pinched harmonic    q  - quarter bend t - tap bend
*  - see comment         ^  - Hold bend    r release bend
x  - Stuccatto           ~  - vibrato bend
,  - slight palm mute    () - ghost note, sustained note
"  - tremolo note        <> - Trill
\
Tuning E A D G B E

Note: Listen to the song for the timings.

Riff 1
|-------------------------------------------------------------------|
|-------------------------------------------------------------------| 
|-------------------------------------------------------------------| 
|--7------11----12----9-----7-----6-----7-----14---13----11------13-|  
|--0------0-----0-----0-----0-----0-----0------0----0-----0-------0-| 
|-------------------------------------------------------------------|


Riff 2
|---------------------------------------------------------|
|---------------------------------------------------------| 
|-9----7----9------12------7-----9------7-----------------| 
|-7----7----7------7-------7-----7------7-----------------|  
|-0----0----0------0-------0-----0------0-----------------| 
|---------------------------------------------------------|

Riff 3
|---------------------------------------------------|
|---------------------------------------------------| 
|---------------------------------------------------| 
|-7----12---14----17----12-----14-----12------------| 
|-0-----0----0-----0-----0------0------0------------| 
|---------------------------------------------------|

Riff 3b
|-------------------------------------------------------------------|
|-------------------------------------------------------------------| 
|-------------------------------------------------------------------| 
|-7-----5----7-----9-----5-----9------7----5-----7----9----12-------|  
|-0-----0----0-----0-----0-----0------0----0-----0----0-----0-------| 
|-------------------------------------------------------------------|

Riff 5 
|------------------------------------------------------|
|------------------------------------------------------| 
|------------------------------------------------------| 
|--10------9-------10------11-----10-------------------|  
|---0------0-------0-------0-------0-------------------| 
|------------------------------------------------------|

Riff 6 - Fill
|--------------------------------|
|--------------------------------| 
|-9-----8------------------------| 
|-7-----7------------------------|  
|-0-----0------------------------| 
|--------------------------------|

Riff 7 - Outro
|----------------------------------------------------|
|----------------------------------------------------| 
|----------------------------------------------------| 
|--10----9-----10------11--------10------------------|  
|---0----0------0-------0---------0------------------| 
|----------------------------------------------------|


http://www.supernalmusic.com/labels/supernal/drudkh.htm
Добавлено: 08.05.2012
Другие материалы по этой песне:

Страница создана 08.05.2012
http://primanota.ru/drudkh/sunwheel-chords.htm
Привет, Гость.
Предлагаем пройти революционный курс по гитаре.
Подарок от PrimaNota.Ru, забирай!