PrimaNota.ru - самый крупный в мире бесплатный архив песенных текстов, аккордов, табулатур и нот


Dream Evil - The Prophecy - текст песни, таба, бас-таба, видео

Регистрация Запомнить меня
Войти через:  Facebook Google Twitter Vk Yandex Mail.ru

Dream Evil - The Prophecy - текст песни, таба, бас-таба, видео

Печатать
Просмотров: 174
Song Name: The Prophecy
Band Name: Dream Evil

Tabbed by: Tam N [TamSanh.com]
Email: Tam_Sanh@hotmail.com

Ahoy! Tam here, pronounced Tom, cause I'm Asian, n stuff. I am part of the band Toilet
Paper Mishap. Yea.. We.. err, only have one song at this point in time. lol. I gotta get
to work on that. Trying to do some Power Metal, and I have decided that Dream Evil is a
good inspirational source, and that everyone should learn how to tab The Prophecy, cause
like.. it sounds cool. So.... yea.. um.. first tab. I never found it on the site, so I
was like "Hey! I can attempt to tab at it." And.. so I did! And here it is.

Each of these is 1 measure, with 4 beats in a measure.

Intro Noise thing:
e|---------|
B|---------|
G|---------|
D|---12----|
A|---12----|
E|---------|

That only lasts for 2 seconds, or somethin.

This next part, they use Constantly.
It's played particularly fast, with up and down picking.

I find it easier to just use my index finger to play all the notes, except the hammer, 
i use my 3rd finger for.
Though, it does create a pretty painful sensation on your index finger the next morning.

We'll call this the "First Guitar"
e|---------------------------------|---------------------------------|
B|---------------------------------|---------------------------------|
G|---------------------------------|---------------------------------|
D|-0-3-0-0-5-0-0-7-0-0-8-0-0-5h7---|-0-0-3-0-0-5-0-0-5-3-2-0-3-2-----|
A|---------------------------------|-----------------------------3---|
E|---------------------------------|---------------------------------|
For the High Bit, i just keep my index finger on the 5, and just use the next finger for 
part. Like, for the 6 5, i just use the second and first. Then for the 7 5, i use the 
and first.

e|---------------------------------|---------------------------------|
B|---------------------------------|-----------------6-5-------------|
G|---------------------------------|---------------------7-5---------|
D|-0-3-0-0-5-0-0-7-0-0-8-0-0-5h7---|-0-0-3-0-0-5-0-0---------8-5-7---|
A|---------------------------------|-------------------------------8-|
E|---------------------------------|---------------------------------|

So then, we play both of these a Second time.

e|---------------------------------|---------------------------------|
B|---------------------------------|---------------------------------|
G|---------------------------------|---------------------------------|
D|-0-3-0-0-5-0-0-7-0-0-8-0-0-5h7---|-0-0-3-0-0-5-0-0-5-3-2-0-3-2-----|
A|---------------------------------|-----------------------------3---|
E|---------------------------------|---------------------------------|

e|---------------------------------|---------------------------------|
B|---------------------------------|-----------------6-5-------------|
G|---------------------------------|---------------------7-5---------|
D|-0-3-0-0-5-0-0-7-0-0-8-0-0-5h7---|-0-0-3-0-0-5-0-0---------8-5-7---|
A|---------------------------------|-------------------------------8-|
E|---------------------------------|---------------------------------|

And then the song picks up into simple power chords.

But, those two are still playing in the background with the other guitar, Possibly it 
Gus G playing it.

Now, for the power chords.

Let's name this "Gus G"
e|---------------------------------|---------------------------------|
B|---------------------------------|---------------------------------|
G|---------------------------------|---------------------------------|
D|---------------------------------|---------------------------------|
A|10-------------------------------|-8-------------------------------|
E|-8-8-8-8-8-8-8-8-8-8-8-8-8-8-8-8-|-6-6-6-6-6-6-6-6-6-6-6-6-6-6-6-6-|

e|---------------------------------|---------------------------------|
B|---------------------------------|---------------------------------|
G|---------------------------------|---------------------------------|
D|---------------------------------|---------------------------------|
A|10-------------------------------|-6---------------8---------------|
E|-8-8-8-8-8-8-8-8-8-8-8-8-8-8-8-8-|-4-4-4-4-4-4-4-4-6-6-6-6-6-6-6-6-|

Notice how the "First Guitar" lays onto the power chords. Now we play that a second time.

e|---------------------------------|---------------------------------|
B|---------------------------------|---------------------------------|
G|---------------------------------|---------------------------------|
D|---------------------------------|---------------------------------|
A|10-------------------------------|-8-------------------------------|
E|-8-8-8-8-8-8-8-8-8-8-8-8-8-8-8-8-|-6-6-6-6-6-6-6-6-6-6-6-6-6-6-6-6-|

e|---------------------------------|---------------------------------|
B|---------------------------------|---------------------------------|
G|---------------------------------|---------------------------------|
D|---------------------------------|---------------------------------|
A|10-------------------------------|-6---------------8---------------|
E|-8-8-8-8-8-8-8-8-8-8-8-8-8-8-8-8-|-4-4-4-4-4-4-4-4-6-6-6-6-6-6-6-6-|

To which it brings us to the verse. The "First Guitar" Doesn't play in the verse.

Verse

e|---------------------------------|---------------------------------|
B|---------------------------------|---------------------------------|
G|---------------------------------|---------------------------------|
D|10-------------------------------|-8-------------------------------|
A|10-------------------------------|-8-------------------------------|
E|-8-------------------------------|-6-------------------------------|

e|---------------------------------|---------------------------------|
B|---------------------------------|---------------------------------|
G|---------------------------------|---------------------------------|
D|10-------------------------------|-6---------------8---------------|
A|10-------------------------------|-6---------------8---------------|
E|-8-------------------------------|-4---------------6---------------|

e|---------------------------------|---------------------------------|
B|---------------------------------|---------------------------------|
G|---------------------------------|---------------------------------|
D|10-------------------------------|-8-------------------------------|
A|10-------------------------------|-8-------------------------------|
E|-8-------------------------------|-6-------------------------------|

e|---------------------------------|---------------------------------|
B|---------------------------------|---------------------------------|
G|---------------------------------|---------------------------------|
D|-6---------------8---------------|10-------------------------------|
A|-6---------------8---------------|10-------------------------------|
E|-4---------------6---------------|-8-------------------------------|

Well, now that that part is complited, We then again play "Gus G"
But! Instead of playing the "First Guitar" over it, we now do a new thing.

Call this "Second Guitar".
e|---------------------------------|---------------------------------|
B|-6---------6-----6---------6-----|-5-----------5---5-3-------------|
G|---7-5---7---7-5---7-5---7---7-5-|---5-------5---5-----5-3-2-------|
D|-------7---------------7---------|-----7---7-----------------5-3-2-|
A|---------------------------------|-------7-------------------------|
E|---------------------------------|---------------------------------|

so That over top of:

e|---------------------------------|---------------------------------|
B|---------------------------------|---------------------------------|
G|---------------------------------|---------------------------------|
D|---------------------------------|---------------------------------|
A|---------------------------------|---------------------------------|
E|-8-8-8-8-8-8-8-8-8-8-8-8-8-8-8-8-|-6-6-6-6-6-6-6-6-6-6-6-6-6-6-6-6-|

e|---------------------------------|---------------------------------|
B|---------------------------------|---------------------------------|
G|---------------------------------|---------------------------------|
D|---------------------------------|---------------------------------|
A|---------------------------------|---------------------------------|
E|-8-8-8-8-8-8-8-8-8-8-8-8-8-8-8-8-|-4-4-4-4-4-4-4-4-6-6-6-6-6-6-6-6-|

e|---------------------------------|---------------------------------|
B|---------------------------------|---------------------------------|
G|---------------------------------|---------------------------------|
D|---------------------------------|---------------------------------|
A|---------------------------------|---------------------------------|
E|-8-8-8-8-8-8-8-8-8-8-8-8-8-8-8-8-|-6-6-6-6-6-6-6-6-6-6-6-6-6-6-6-6-|

For the last part, we play This:


e|-----------------5---------------|---------------------------------|
B|-6---------6-------8-6-5-8-6-5---|-6---------6-----5-3-------------|
G|---7-5---7---7-5---------------7-|---7-5---7---7-5-----5-3-2-------|
D|-------7-------------------------|-------7-------------------5-3-2-|
A|---------------------------------|---------------------------------|
E|---------------------------------|---------------------------------|

Over this.

e|---------------------------------|---------------------------------|
B|---------------------------------|---------------------------------|
G|---------------------------------|---------------------------------|
D|---------------------------------|---------------------------------|
A|---------------------------------|---------------------------------|
E|-4-4-4-4-4-4-4-4-6-6-6-6-6-6-6-6-|-8-8-8-8-8-8-8-8-8-8-8-8-8-8-8-8-|

Now we get to the prechorus. and stop the "Second Guitar"

e|---------------------------------|---------------------------------|
B|---------------------------------|---------------------------------|
G|-3-----------------------6---6---|-------------------------6-------|
D|-3-----------------------6---6---|-----------------6-------6-------|
A|-1-------0-0-0-0-0-0-0-0-4---4---|-0-0-0---0-0-0---6-------4-------|
E|---------------------------------|-----------------6---------------|

e|---------------------------------|---------------------------------|
B|---------------------------------|---------------------------------|
G|-3-----------------------6---6---|-----------------3-2-0-----------|
D|-3-----------------------6---6---|-----------------------3-2-0-----|
A|-1-------0-0-0-0-0-0-0-0-4---4---|-0-0-0---0-0-0---------------4-1-|
E|---------------------------------|---------------------------------|

e|---------------------------------|---------------------------------|
B|---------------------------------|---------------------------------|
G|-3-----------------------2---2---|-6---------------8---------------|
D|-3-----------------------2---2---|-6---------------8---------------|
A|-1-------0-0-0-0-0-0-0-0-0---0---|-4---------------6---------------|
E|---------------------------------|---------------------------------|

e|---------------------------------|---------------------------------|
B|---------------------------------|---------------------------------|
G|-------------------------2---2---|-6---------------8---------------|
D|-------------------------2---2---|-6---------------8---------------|
A|-4-------0-0-0-0-0-0-0-0-0---0---|-4---------------6---------------|
E|---------------------------------|---------------------------------|

Verse

e|---------------------------------|---------------------------------|
B|---------------------------------|---------------------------------|
G|---------------------------------|---------------------------------|
D|10-------------------------------|-8-------------------------------|
A|10-------------------------------|-8-------------------------------|
E|-8-------------------------------|-6-------------------------------|

e|---------------------------------|---------------------------------|
B|---------------------------------|---------------------------------|
G|---------------------------------|---------------------------------|
D|10-------------------------------|-6---------------8---------------|
A|10-------------------------------|-6---------------8---------------|
E|-8-------------------------------|-4---------------6---------------|

e|---------------------------------|---------------------------------|
B|---------------------------------|---------------------------------|
G|---------------------------------|---------------------------------|
D|10-------------------------------|-8-------------------------------|
A|10-------------------------------|-8-------------------------------|
E|-8-------------------------------|-6-------------------------------|

e|---------------------------------|---------------------------------|
B|---------------------------------|---------------------------------|
G|---------------------------------|---------------------------------|
D|10-------------------------------|-6---------------8---------------|
A|10-------------------------------|-6---------------8---------------|
E|-8-------------------------------|-4---------------6---------------|

e|---------------------------------|---------------------------------|
B|---------------------------------|---------------------------------|
G|---------------------------------|---------------------------------|
D|---------------------------------|---------------------------------|
A|10-------------------------------|-8-------------------------------|
E|-8-8-8-8-8-8-8-8-8-8-8-8-8-8-8-8-|-6-6-6-6-6-6-6-6-6-6-6-6-6-6-6-6-|

e|---------------------------------|---------------------------------|
B|---------------------------------|---------------------------------|
G|---------------------------------|---------------------------------|
D|---------------------------------|---------------------------------|
A|10-------------------------------|-6---------------8---------------|
E|-8-8-8-8-8-8-8-8-8-8-8-8-8-8-8-8-|-4-4-4-4-4-4-4-4-6-6-6-6-6-6-6-6-|

e|---------------------------------|---------------------------------|
B|---------------------------------|---------------------------------|
G|---------------------------------|---------------------------------|
D|---------------------------------|---------------------------------|
A|10-------------------------------|-8-------------------------------|
E|-8-8-8-8-8-8-8-8-8-8-8-8-8-8-8-8-|-6-6-6-6-6-6-6-6-6-6-6-6-6-6-6-6-|

e|---------------------------------|---------------------------------|
B|---------------------------------|---------------------------------|
G|---------------------------------|---------------------------------|
D|---------------------------------|---------------------------------|
A|10-------------------------------|-6---------------8---------------|
E|-8-8-8-8-8-8-8-8-8-8-8-8-8-8-8-8-|-4-4-4-4-4-4-4-4-6-6-6-6-6-6-6-6-|


e|---------------------------------|---------------------------------|
B|---------------------------------|---------------------------------|
G|---------------------------------|---------------------------------|
D|10-------------------------------|-8-------------------------------|
A|10-------------------------------|-8-------------------------------|
E|-8-------------------------------|-6-------------------------------|

e|---------------------------------|---------------------------------|
B|---------------------------------|---------------------------------|
G|---------------------------------|---------------------------------|
D|10-------------------------------|-6---------------8---------------|
A|10-------------------------------|-6---------------8---------------|
E|-8-------------------------------|-4---------------6---------------|

e|---------------------------------|---------------------------------|
B|---------------------------------|---------------------------------|
G|---------------------------------|---------------------------------|
D|10-------------------------------|-8-------------------------------|
A|10-------------------------------|-8-------------------------------|
E|-8-------------------------------|-6-------------------------------|

e|---------------------------------|---------------------------------|
B|---------------------------------|---------------------------------|
G|---------------------------------|---------------------------------|
D|-6---------------8---------------|-10------------------------------|
A|-6---------------8---------------|-10------------------------------|
E|-4---------------6---------------|--8------------------------------|

e|---------------------------------|---------------------------------|
B|---------------------------------|---------------------------------|
G|---------------------------------|---------------------------------|
D|---------------------------------|---------------------------------|
A|10-------------------------------|-8-------------------------------|
E|-8-8-8-8-8-8-8-8-8-8-8-8-8-8-8-8-|-6-6-6-6-6-6-6-6-6-6-6-6-6-6-6-6-|

e|---------------------------------|---------------------------------|
B|---------------------------------|---------------------------------|
G|---------------------------------|---------------------------------|
D|---------------------------------|---------------------------------|
A|10-------------------------------|-6---------------8---------------|
E|-8-8-8-8-8-8-8-8-8-8-8-8-8-8-8-8-|-4-4-4-4-4-4-4-4-6-6-6-6-6-6-6-6-|

e|---------------------------------|---------------------------------|
B|---------------------------------|---------------------------------|
G|---------------------------------|---------------------------------|
D|---------------------------------|---------------------------------|
A|10-------------------------------|-8-------------------------------|
E|-8-8-8-8-8-8-8-8-8-8-8-8-8-8-8-8-|-6-6-6-6-6-6-6-6-6-6-6-6-6-6-6-6-|

e|---------------------------------|---------------------------------|
B|---------------------------------|---------------------------------|
G|---------------------------------|---------------------------------|
D|---------------------------------|---------------------------------|
A| 6---------------8---------------|10-------------------------------|
E|-4-4-4-4-4-4-4-4-6-6-6-6-6-6-6-6-|-8-8-8-8-8-8-8-8-8-8-8-8-8-8-8-8-|

e|---------------------------------|---------------------------------|
B|---------------------------------|---------------------------------|
G|-3-----------------------6---6---|-------------------------6-------|
D|-3-----------------------6---6---|-----------------6-------6-------|
A|-1-------0-0-0-0-0-0-0-0-4---4---|-0-0-0---0-0-0---6-------4-------|
E|---------------------------------|-----------------6---------------|

e|---------------------------------|---------------------------------|
B|---------------------------------|---------------------------------|
G|-3-----------------------6---6---|-----------------3-2-0-----------|
D|-3-----------------------6---6---|-----------------------3-2-0-----|
A|-1-------0-0-0-0-0-0-0-0-4---4---|-0-0-0---0-0-0---------------4-1-|
E|---------------------------------|---------------------------------|

e|---------------------------------|---------------------------------|
B|---------------------------------|---------------------------------|
G|-3-----------------------2---2---|-6---------------8---------------|
D|-3-----------------------2---2---|-6---------------8---------------|
A|-1-------0-0-0-0-0-0-0-0-0---0---|-4---------------6---------------|
E|---------------------------------|---------------------------------|

e|---------------------------------|---------------------------------|
B|---------------------------------|---------------------------------|
G|-------------------------2---2---|-6---------------8---------------|
D|-------------------------2---2---|-6---------------8---------------|
A|-4-------0-0-0-0-0-0-0-0-0---0---|-4---------------6---------------|
E|---------------------------------|---------------------------------|

e|---------------------------------|---------------------------------|
B|---------------------------------|---------------------------------|
G|---------------------------------|---------------------------------|
D|10-------------------------------|-8-------------------------------|
A|10-------------------------------|-8-------------------------------|
E|-8-------------------------------|-6-------------------------------|

e|---------------------------------|---------------------------------|
B|---------------------------------|---------------------------------|
G|---------------------------------|---------------------------------|
D|10-------------------------------|-6---------------8---------------|
A|10-------------------------------|-6---------------8---------------|
E|-8-------------------------------|-4---------------6---------------|

e|---------------------------------|---------------------------------|
B|---------------------------------|---------------------------------|
G|---------------------------------|---------------------------------|
D|10-------------------------------|-8-------------------------------|
A|10-------------------------------|-8-------------------------------|
E|-8-------------------------------|-6-------------------------------|

e|---------------------------------|---------------------------------|
B|---------------------------------|---------------------------------|
G|---------------------------------|---------------------------------|
D|10-------------------------------|-6---------------8---------------|
A|10-------------------------------|-6---------------8---------------|
E|-8-------------------------------|-4---------------6---------------|

e|---------------------------------|---------------------------------|
B|---------------------------------|---------------------------------|
G|---------------------------------|---------------------------------|
D|10-------------------------------|-8-------------------------------|
A|10-------------------------------|-8-------------------------------|
E|-8-------------------------------|-6-------------------------------|

e|---------------------------------|---------------------------------|
B|---------------------------------|---------------------------------|
G|---------------------------------|---------------------------------|
D|10-------------------------------|-6---------------8---------------|
A|10-------------------------------|-6---------------8---------------|
E|-8-------------------------------|-4---------------6---------------|

e|---------------------------------|---------------------------------|
B|---------------------------------|---------------------------------|
G|---------------------------------|---------------------------------|
D|10-------------------------------|-8-------------------------------|
A|10-------------------------------|-8-------------------------------|
E|-8-------------------------------|-6-------------------------------|

e|---------------------------------|---------------------------------|
B|---------------------------------|---------------------------------|
G|---------------------------------|---------------------------------|
D|10-------------------------------|-4---------------8---------------|
A|10-------------------------------|-4---------------8---------------|
E|-8-------------------------------|-4---------------6---------------|

Hunting the Dragon:

e|---------------------------------|---------------------------------|
B|---------------------------------|---------------------------------|
G|---------------------------------|---------------------------------|
D|-6-------------------------------|-5-------------------------------|
A|-6-------------------------------|-5-------------------------------|
E|-4-4-4-4-4-4-4-4-4-4-4-4-4-4-4-4-|-3-3-3-3-3-3-3-3-3-3-3-3-3-3-3-3-|

e|---------------------------------|---------------------------------|
B|---------------------------------|---------------------------------|
G|---------------------------------|---------------------------------|
D|---------------------------------|-----------------3-2-0---2-0-----|
A|---------------------------------|-----------------------3-----3-0-|
E|-4-4-4-4-4-4-4-4-4-4-4-4-4-4-4-4-|-6-6-6-6-6-6-6-6-----------------|

e|---------------------------------|---------------------------------|
B|---------------------------------|---------------------------------|
G|---------------------------------|---------------------------------|
D|-6-------------------------------|-5-------------------------------|
A|-6-------------------------------|-5-------------------------------|
E|-4-4-4-4-4-4-4-4-4-4-4-4-4-4-4-4-|-3-3-3-3-3-3-3-3-3-3-3-3-3-3-3-3-|

e|---------------------------------|------------------------------12-|
B|---------------------------------|---------------------------------|
G|---------------------------------|---------------------------------|
D|-6-------------------------------|--8---------------------10-------|
A|-6-------------------------------|--8---------------------10-------|
E|-4-4-4-4-4-4-4-4-4-4-4-4-4-4-4-4-|--6----------------------8-------|

Solo Time... I've had to remove the bar because the solos took 2 digits.
So each of those bars isn't exactly a measure...

e|-13p10----------10-13p10-12---------------12-----------------------|
B|-------10----10-------------13---------13----13--------------------|
G|----------10-------------------12-9-12-----------------------------|
D|-------------------------------------------------------------------|
A|-------------------------------------------------------------------|
E|-------------------------------------------------------------------|

e|-12---------------12----13----------------10-----------------------|
B|----13---------13----13----11----------11----11--------------------|
G|-------12-9-12----------------10----10-----------------------------|
D|---------------------------------12--------------------------------|
A|-------------------------------------------------------------------|
E|-------------------------------------------------------------------|

e|-10----------------10----------------------------------------------|
B|----11----------11----11-13p10----------10-13p10-------------------|
G|-------10----10----------------10----10----------------------------|
D|----------12----------------------10-------------------------------|
A|-------------------------------------------------------------------|
E|-------------------------------------------------------------------|

e|--9----------12----------15p12-------18----------------------------|
B|----10----10----14----14-------14/17----20p17----------------------|
G|--------9----------12----------------------------------------------|
D|-------------------------------------------------------------------|
A|-------------------------------------------------------------------|
E|-------------------------------------------------------------------|

e|-----------------------------------------9-------------------------|
B|----------------------------11-------------------------------------|
G|-----9----------12--9-----9-----9-----9-----9----------------------|
D|-11----11----11-------11----------11----------11-------------------|
A|----------12-------------------------------------------------------|
E|-------------------------------------------------------------------|

e|-------------12----------15----------21pull------------------------|
B|-14-------------14----14----17----17-------------------------------|
G|----12----12-------15----------18----------------------------------|
D|-------14----------------------------------------------------------|
A|-------------------------------------------------------------------|
E|-------------------------------------------------------------------|

e|-13p10----------10-13p10-12---------------12-----------------------|
B|-------10----10-------------13---------13----13--------------------|
G|----------10-------------------12-9-12-----------------------------|
D|-------------------------------------------------------------------|
A|-------------------------------------------------------------------|
E|-------------------------------------------------------------------|

e|-12---------------12----13----------------10-----------------------|
B|----13---------13----13----11----------11----11--------------------|
G|-------12-9-12----------------10----10-----------------------------|
D|---------------------------------12--------------------------------|
A|-------------------------------------------------------------------|
E|-------------------------------------------------------------------|

e|-10----------------10----------------------------------------------|
B|----11----------11----11-13p10----------10-13p10-------------------|
G|-------10----10----------------10----10----------------------------|
D|----------12----------------------10-------------------------------|
A|-------------------------------------------------------------------|
E|-------------------------------------------------------------------|

e|--9----------12----------15p12-------18----------------------------|
B|----10----10----14----14-------14/17----20p17----------------------|
G|--------9----------12----------------------------------------------|
D|-------------------------------------------------------------------|
A|-------------------------------------------------------------------|
E|-------------------------------------------------------------------|

e|-----------------------------------------9-------------------------|
B|----------------------------11-------------------------------------|
G|-----9----------12--9-----9-----9-----9-----9----------------------|
D|-11----11----11-------11----------11----------11-------------------|
A|----------12-------------------------------------------------------|
E|-------------------------------------------------------------------|

e|-------------12----------15----------21pull------------------------|
B|-14-------------14----14----17----17-------------------------------|
G|----12----12-------15----------18----------------------------------|
D|-------14----------------------------------------------------------|
A|-------------------------------------------------------------------|
E|-------------------------------------------------------------------|

e|------------------------|------------------------------------------|
B|-15pull-15pull-15pull---|-7/9-9-9-9/12-12-12-14--------------------|
G|------------------------|------------------------------------------|
D|------------------------|------------------------------------------|
A|------------------------|------------------------------------------|
E|------------------------|------------------------------------------|

e|----------------------------------------------------14-------------|
B|----------------------------------15----------15-17----17p15-------|
G|-------------------------14h16h17----17p16-17----------------------|
D|----14h16-17p16p14h16-17-------------------------------------------|
A|-17----------------------------------------------------------------|
E|-------------------------------------------------------------------|

Then you just keep bendin the 15 for 2 measures

e|-------------------------------------------------------------------|
B|-----15pull------------------15pull--------------------------------|
G|-------------------------------------------------------------------|
D|-------------------------------------------------------------------|
A|-------------------------------------------------------------------|
E|-------------------------------------------------------------------|

e|-------------------------------------------------------------------|
B|----15----------------12-------------------------------------------|
G|-16----16-15-16-15-14----14-12-11-12-14-12-------------------------|
D|-------------------------------------------------------------------|
A|-------------------------------------------------------------------|
E|-------------------------------------------------------------------|

e|-------------------------------------------------------------------|
B|-------------------------------------------------------------------|
G|----12-------------------12----------------------------------------|
D|-14----14-12-14-12----12----14-12-14-12----------------------------|
A|-------------------14-------------------14-13-12-------------------|
E|-------------------------------------------------------------------|

e|-------------------------------------------------------------------|
B|----17-15p12----17-15p12----17-15p12----17-15p12---17-15p12--------|
G|-14----------14----------14----------14---------14----------14-----|
D|-------------------------------------------------------------------|
A|-------------------------------------------------------------------|
E|-------------------------------------------------------------------|

e|-------------15----------17----------------------------------------|
B|-17-15p12-------17p15-------17p15----------------------------------|
G|----------14----------16----------16-------------------------------|
D|-------------------------------------------------------------------|
A|-------------------------------------------------------------------|
E|-------------------------------------------------------------------|

e|-------------------------------|-----------------------------------|
B|-------------------------------|--15pull---------------------------|
G|-16----------------------------|-----------------------------------|
D|-------------------------------|-----------------------------------|
A|-------------------------------|-----------------------------------|
E|-------------------------------|-----------------------------------|

Then back to Chorus:

e|---------------------------------|---------------------------------|
B|---------------------------------|---------------------------------|
G|---------------------------------|---------------------------------|
D|10-------------------------------|-8-------------------------------|
A|10-------------------------------|-8-------------------------------|
E|-8-------------------------------|-6-------------------------------|

e|---------------------------------|---------------------------------|
B|---------------------------------|---------------------------------|
G|---------------------------------|---------------------------------|
D|10-------------------------------|-6---------------8---------------|
A|10-------------------------------|-6---------------8---------------|
E|-8-------------------------------|-4---------------6---------------|

e|---------------------------------|---------------------------------|
B|---------------------------------|---------------------------------|
G|---------------------------------|---------------------------------|
D|10-------------------------------|-8-------------------------------|
A|10-------------------------------|-8-------------------------------|
E|-8-------------------------------|-6-------------------------------|

e|---------------------------------|
B|---------------------------------|
G|---------------------------------|
D|-4---------------8---------------|
A|-4---------------8---------------|
E|-4---------------6---------------|

e|---------------------------------|---------------------------------|
B|---------------------------------|---------------------------------|
G|---------------------------------|---------------------------------|
D|10-------------------------------|-8-------------------------------|
A|10-------------------------------|-8-------------------------------|
E|-8-------------------------------|-6-------------------------------|

e|---------------------------------|---------------------------------|
B|---------------------------------|---------------------------------|
G|---------------------------------|---------------------------------|
D|10-------------------------------|-6---------------8---------------|
A|10-------------------------------|-6---------------8---------------|
E|-8-------------------------------|-4---------------6---------------|

e|---------------------------------|---------------------------------|
B|---------------------------------|---------------------------------|
G|---------------------------------|---------------------------------|
D|10-------------------------------|-8-------------------------------|
A|10-------------------------------|-8-------------------------------|
E|-8-------------------------------|-6-------------------------------|

e|---------------------------------|---------------------------------|
B|---------------------------------|---------------------------------|
G|---------------------------------|---------------------------------|
D|-4---------------8---------------|10-------------------------------|
A|-4---------------8---------------|10-------------------------------|
E|-4---------------6---------------|-8-------------------------------|

Outro:

e|---------------------------------|---------------------------------|
B|---------------------------------|---------------------------------|
G|---------------------------------|---------------------------------|
D|-0-3-0-0-5-0-0-7-0-0-8-0-0-5h7---|-0-0-3-0-0-5-0-0-5-3-2-0-3-2-0---|
A|---------------------------------|-------------------------------3-|
E|---------------------------------|---------------------------------|

e|---------------------------------|---------------------------------|
B|---------------------------------|-----------------6-5-------------|
G|---------------------------------|---------------------7-5---------|
D|-0-3-0-0-5-0-0-7-0-0-8-0-0-5h7---|-0-0-3-0-0-5-0-0---------8-5-7---|
A|---------------------------------|-------------------------------8-|
E|---------------------------------|---------------------------------|

e|---------------------------------|---------------------------------|
B|---------------------------------|---------------------------------|
G|---------------------------------|---------------------------------|
D|-0-3-0-0-5-0-0-7-0-0-8-0-0-5h7---|-0-0-3-0-0-5-0-0-5-3-2-0-3-2-0---|
A|---------------------------------|-------------------------------3-|
E|---------------------------------|---------------------------------|

e|---------------------------------|---------------------------------|
B|---------------------------------|-----------------6-5-------------|
G|---------------------------------|---------------------7-5---------|
D|-0-3-0-0-5-0-0-7-0-0-8-0-0-5h7---|-0-0-3-0-0-5-0-0---------8-5-7---|
A|---------------------------------|-------------------------------8-|
E|---------------------------------|---------------------------------|

And that's it.

Wow. I am so proud of myself. Thanks for reading!
Support Toilet Paper Mishap by Checkin out www.TamSanh.com
Добавлено: 24.04.2012
Другие материалы по этой песне:

Страница создана 29.02.2012
http://primanota.ru/dream-evil/the-prophecy-chords.htm
Привет, Гость.
Предлагаем пройти революционный курс по гитаре.
Подарок от PrimaNota.Ru, забирай!