PrimaNota.ru - самый крупный в мире бесплатный архив песенных текстов, аккордов, табулатур и нот


Dream Evil - Chosen Ones - текст песни, таба, видео

Регистрация Запомнить меня
Войти через:  Facebook Google Twitter Vk Yandex Mail.ru

Dream Evil - Chosen Ones - текст песни, таба, видео

Печатать
Просмотров: 356
INFO!

This has all but the solo (because solo's arent much welcome as I can see)
So, enjoy!

About intro, the 1st line is CLEAN
The intro solo is with light distortion

H-hammer on
P-Pull off
S-Slide


INTRO

E--------------------------------------|
B--------------------------------------|
G----3-7-3------3-7-3-------3-7-3------|
D---7-----7----7-----7----7-------7----|
A--5-------5--5-------5--5---------5---|
E-3----------3----------3-----------3--|

E--------------------------------------------------------------------------|
B--------------------------------------------------------------------------|
G------5-7------------------5-7-----------------------------------8-7-5----|
D-8---8---7---7h8p7-5--8---8---7---7h8p7-5--5--7-8s10-8--8h10p8-7------7-5-|
A--------------------------------------------------------------------------|
E--------------------------------------------------------------------------|

E----------------------|
B----------------------|
G----------------------|
D--7-8s10-8--8h10p8-7--|
A----------------------|
E----------------------|

1ST VERSE

We are the chosen ones, we sacrifice our blood, we kill for honor
E------------------------------------------------------------------------|
B------------------------------------------------------------------------|
G------------------------------------------------------------------------|
D------------------------------------------------------------------------|
A------------------------------------------------------------------------|
E-3-3-3-3-3-3-3-3-3-3-3-3-3-3-3-3-3-3-3-3-3-3-3-3-3-3-3-3-3-3-3-3-3-3-3-3|

We are the holy ones, our armors stained with blood, we killed the dragon
E-------------------------------------------------------------------------|
B-------------------------------------------------------------------------|
G-------------------------------------------------------------------------|
D---------------------------------------------------------------8-7-3-5-5-|
A---------------------------------------------------------------8-7-3-5-5-|
E-3-3-3-3-3-3-3-3-3-3-3-3-3-3-3-3-3-3-3-3-3-3-3-3-3-3-3-3-3-3-3-----------|

In glory we return, our destenations end, we slayed the dragon
E------------------------------------------------------------------------|
B------------------------------------------------------------------------|
G------------------------------------------------------------------------|
D------------------------------------------------------------------------|
A-5-5-------------------------------5-5----------------------------------|
E-3-3-3-3-3-3-3-3-3-3-3-3-3-3-3-3-3-3-3-3-3-3-3-3-3-3-3-3-3-3-3-3-3-3-3-3|
                                                               *DISTORION*
No more living in fear, it's time to raise our king, we made it happend..
E-------------------------------------------------------------------------|
B-------------------------------------------------------------------------|
G---------------------------------------------------------------7-5-2-3-3-|
D---------------------------------------------------------------7-5-2-3-3-|
A-5-5-------------------------------5-5-------------------------5-3-0-1-1-|
E-3-3-3-3-3-3-3-3-3-3-3-3-3-3-3-3-3-3-3-3-3-3-3-3-3-3-3-3-3-3-3-----------|

INTRELUDE

We are the chosen ones, we sacrifice our blood, we kill for honor
E-------------------------------------------------------------------------|
B-------------------------------------------------------------------------|
G-------------------------------------------------------------------------|
D---------------------------------------------------------------8-7-3-5-5-|
A---------------------------------------------------------------8-7-3-5-5-|
E-3-3-3-3-3-3-3-3-3-3-3-3-3-3-3-3-3-3-3-3-3-3-3-3-3-3-3-3-3-3-3-6-5-1-3-3-|

We are the holy ones, our armors stained with blood, we killed the dragon..
E-------------------------------------------------------------------------|
B-------------------------------------------------------------------------|
G---------------------------------------------------------------7-5-2-3-3-|
D---------------------------------------------------------------7-5-2-3-3-|
A-5-5-------------------------------5-5-------------------------5-3-0-1-1-|
E-3-3-3-3-3-3-3-3-3-3-3-3-3-3-3-3-3-3-3-3-3-3-3-3-3-3-3-3-3-3-3-----------|

2ND VERSE

Riding... and lightning once again, we slayed the beast..
E-----------------------------------------------|
B-----------------------------------------------|
G-----------------------------------------------|
D-5---------------------------------3-5-------3-|
A-5--------1-111-111-111-111-111-11-3-5-------3-|
E-3---------------------------------1-3-------1-|

Now we... the kingdom of the damned  heroes of the day, legends forever
E------------------------------------------------------------------|
B------------------------------------------------------------------|
G------------------------------------3----2------------------------|
D-5----------------------------------3----2----1-------------------|
A-5--------1-111-111-111-111-111-11--1----0----1-----------------4-|
E-3--------------------------------------------------1-1-1-1-1-1-2-|

INTRELUDE

We are the chosen ones, we sacrifice our blood, we kill for honor
E-------------------------------------------------------------------------|
B-------------------------------------------------------------------------|
G-------------------------------------------------------------------------|
D---------------------------------------------------------------8-7-3-5-5-|
A---------------------------------------------------------------8-7-3-5-5-|
E-3-3-3-3-3-3-3-3-3-3-3-3-3-3-3-3-3-3-3-3-3-3-3-3-3-3-3-3-3-3-3-6-5-1-3-3-|

We are the holy ones, our armors stained with blood, we killed the dragon..
E-------------------------------------------------------------------------|
B-------------------------------------------------------------------------|
G---------------------------------------------------------------7-5-2-3-3-|
D---------------------------------------------------------------7-5-2-3-3-|
A-5-5-------------------------------5-5-------------------------5-3-0-1-1-|
E-3-3-3-3-3-3-3-3-3-3-3-3-3-3-3-3-3-3-3-3-3-3-3-3-3-3-3-3-3-3-3-----------|

3RD VERSE

It seems.. journey without end        so..    battles..
E-----------------------------------------------|
B-----------------------------------------------|
G-----------------------------------------------|
D-5---------------------------------3-5-------3-|
A-5--------1-111-111-111-111-111-11-3-5-------3-|
E-3---------------------------------1-3-------1-|

We finally..  Standing at the gates  Heroes of the day, legends forever
E------------------------------------------------------------------|
B------------------------------------------------------------------|
G------------------------------------3----2------------------------|
D-5----------------------------------3----2----1-------------------|
A-5--------1-111-111-111-111-111-11--1----0----1-----------------4-|
E-3--------------------------------------------------1-1-1-1-1-1-2-|

INTRELUDE

In glory we return, our destanations end, we slayed the dragon
E-------------------------------------------------------------------------|
B-------------------------------------------------------------------------|
G-------------------------------------------------------------------------|
D---------------------------------------------------------------8-7-3-5-5-|
A---------------------------------------------------------------8-7-3-5-5-|
E-3-3-3-3-3-3-3-3-3-3-3-3-3-3-3-3-3-3-3-3-3-3-3-3-3-3-3-3-3-3-3-6-5-1-3-3-|

Now more living in fear, it's time to raise our king, we made it happend..
E-------------------------------------------------------------------------|
B-------------------------------------------------------------------------|
G---------------------------------------------------------------7-5-2-3-3-|
D---------------------------------------------------------------7-5-2-3-3-|
A-5-5-------------------------------5-5-------------------------5-3-0-1-1-|
E-3-3-3-3-3-3-3-3-3-3-3-3-3-3-3-3-3-3-3-3-3-3-3-3-3-3-3-3-3-3-3-----------|
                        Solo enters, that's 2nd guitar
E--------------------------------------------------|
B--------------------------------------------------|
G--------------------------------------------------|
D-----------------5--6--7--3--7--0-3--7--3--7--0-3-|
A-5-----5-----5---5--6--7--3--7--0-3--7--3--7--0-3-|
E-3-3-3-3-3-3-3-3-3--4--5--1--5----1--5--1--5----1-|

E-------------------------------------------------------------------------|
B-------------------------------------------------------------------------|
G-------------------------------------------------------------------------|
D-7-----------3------------7-----------0--------------------------------5-|
A-7-----------3------------7-----------0--------------------------------5-|
E-5-5-5-5-5-5-1-1-1-1-1-1--5-5-5-5-5-5--1-1-5-5-5-5-5-1-1-1-1-1-1-1-1-1-3-|

LAST VERSE

We are the chosen ones, we sacrifice our blood, we kill for honor
E------------------------------------------------------------------------|
B------------------------------------------------------------------------|
G------------------------------------------------------------------------|
D------------------------------------------------------------------------|
A------------------------------------------------------------------------|
E-3-3-3-3-3-3-3-3-3-3-3-3-3-3-3-3-3-3-3-3-3-3-3-3-3-3-3-3-3-3-3-3-3-3-3-3|

We are the holy ones, our armors stained with blood, we killed the dragon
E-------------------------------------------------------------------------|
B-------------------------------------------------------------------------|
G-------------------------------------------------------------------------|
D---------------------------------------------------------------8-7-3-5-5-|
A---------------------------------------------------------------8-7-3-5-5-|
E-3-3-3-3-3-3-3-3-3-3-3-3-3-3-3-3-3-3-3-3-3-3-3-3-3-3-3-3-3-3-3-----------|

In glory we return, our destenations end, we slayed the dragon
E------------------------------------------------------------------------|
B------------------------------------------------------------------------|
G------------------------------------------------------------------------|
D------------------------------------------------------------------------|
A-5-5-------------------------------5-5----------------------------------|
E-3-3-3-3-3-3-3-3-3-3-3-3-3-3-3-3-3-3-3-3-3-3-3-3-3-3-3-3-3-3-3-3-3-3-3-3|

No more living in fear, it's time to raise our king, we made it happend..
E-------------------------------------------------------------------------|
B-------------------------------------------------------------------------|
G---------------------------------------------------------------7-5-2-3-3-|
D---------------------------------------------------------------7-5-2-3-3-|
A-5-5-------------------------------5-5-------------------------5-3-0-1-1-|
E-3-3-3-3-3-3-3-3-3-3-3-3-3-3-3-3-3-3-3-3-3-3-3-3-3-3-3-3-3-3-3-----------|

We are the chosen ones, we sacrifice our blood, we kill for honor
E-------------------------------------------------------------------------|
B-------------------------------------------------------------------------|
G-------------------------------------------------------------------------|
D---------------------------------------------------------------8-7-3-5-5-|
A---------------------------------------------------------------8-7-3-5-5-|
E-3-3-3-3-3-3-3-3-3-3-3-3-3-3-3-3-3-3-3-3-3-3-3-3-3-3-3-3-3-3-3-6-5-1-3-3-|

We are the holy ones, our armors stained with blood, we killed the dragon..
E-------------------------------------------------------------------------|
B-------------------------------------------------------------------------|
G---------------------------------------------------------------7-5-2-3-3-|
D---------------------------------------------------------------7-5-2-3-3-|
A-5-5-------------------------------5-5-------------------------5-3-0-1-1-|
E-3-3-3-3-3-3-3-3-3-3-3-3-3-3-3-3-3-3-3-3-3-3-3-3-3-3-3-3-3-3-3-----------|



And Fade out..

Enjoy! Eldad
Добавлено: 09.04.2012
Другие материалы по этой песне:

Страница создана 09.04.2012
http://primanota.ru/dream-evil/chosen-ones-chords.htm
Привет, Гость.
Предлагаем пройти революционный курс по гитаре.
Подарок от PrimaNota.Ru, забирай!