PrimaNota.ru - самый крупный в мире бесплатный архив песенных текстов, аккордов, табулатур и нот


Dream Evil - Bad Dreams - текст песни, таба, видео

Регистрация Запомнить меня
Войти через:  Facebook Google Twitter Vk Yandex Mail.ru

Dream Evil - Bad Dreams - текст песни, таба, видео

Печатать
Просмотров: 180
Tab by: Amadi
Song: Dream Evil - Bad Dreams
Album: Evilized
Year: 2003

---------------------------Comment/rate pls----------------------------------
     Intro
  d |------------------------------------------------------------------|
  A |------------------------------------------------------------------|
  F |------------------------------------------------------------------|
  C |2-5-1-2--2-2-2--2-2-2--2-2/5-5\1-1-2--2-2-2--2-2-2--2-2-2/5-2/7---|
  G |2-5-1-2--2-2-2--2-2-2--2-2/5-5\1-1-2--2-2-2--2-2-2--2-2-2/5-2/7---|
  C |2-5-1-2--2-2-2--2-2-2--2-2/5-5\1-1-2--2-2-2--2-2-2--2-2-2/5-2/7---|

  d |------------------------------------------------------------------|
  A |------------------------------------------------------------------|
  F |------------------------------------------------------------------|
  C |2--2-2-2--2-2-2--2-2/5-5\1-1-9~~/--2-2-2/5-2/7--------------------|
  G |2--2-2-2--2-2-2--2-2/5-5\1-1-9~~/--2-2-2/5-2/7--------------------|
  C |2--2-2-2--2-2-2--2-2/5-5\1-1-9~~/--2-2-2/5-2/7--------------------|

    Verse
  d |------------------------------------------------------------------|
  A |------------------------------------------------------------------|
  F |------------------------------------------------------------------|
  C |2--2-2-2--2-2-2--2-2-2--2/7--2--2-2-2--2-2-2--2-2-2/5-2/7---------|
  G |2--2-2-2--2-2-2--2-2-2--2/7--2--2-2-2--2-2-2--2-2-2/5-2/7---------|
  C |2--2-2-2--2-2-2--2-2-2--2/7--2--2-2-2--2-2-2--2-2-2/5-2/7---------|

  d |------------------------------------------------------------------|
  A |------------------------------------------------------------------|
  F |------------------------------------------------------------------|
  C |2--2-2-2--2-2-2--2-2-2--2/7--2--2-2-2--2-2-2--2-2-2-2222----------|
  G |2--2-2-2--2-2-2--2-2-2--2/7--2--2-2-2--2-2-2--2-2-2-2222----------|
  C |2--2-2-2--2-2-2--2-2-2--2/7--2--2-2-2--2-2-2--2-2-2-2222----------|

    Bridge
  d |------------------------------------------------------------------|
  A |------------------------------------------------------------------|
  F |------------------------------------------------------------------|
  C |10-9-7--10-9-7--10-9-7-5-7-7-7777-5555-1111-----------------------|
  G |10-9-7--10-9-7--10-9-7-5-7-7-7777-5555-1111-----------------------|
  C |10-9-7--10-9-7--10-9-7-5-7-7-7777-5555-1111-----------------------|

   Chorus
  d |------------------------------------------------------------------|
  A |------------------------------------------------------------------|
  F |------------------------------------------------------------------|
  C |2--222/9-8~~--2--222/9-8~~--2--222/9-8~~-9-10-8-9\----------------|
  G |2--222/9-8~~--2--222/9-8~~--2--222/9-8~~-9-10-8-9\----------------|
  C |2--222/9-8~~--2--222/9-8~~--2--222/9-8~~-9-10-8-9\----------------|
    
    Intro
  d |------------------------------------------------------------------|
  A |------------------------------------------------------------------|
  F |------------------------------------------------------------------|
  C |2--2-2-2--2-2-2--2-2/5-5\1-1-2--2-2-2--2-2-2--2-2-2/5-2/7---------|
  G |2--2-2-2--2-2-2--2-2/5-5\1-1-2--2-2-2--2-2-2--2-2-2/5-2/7---------|
  C |2--2-2-2--2-2-2--2-2/5-5\1-1-2--2-2-2--2-2-2--2-2-2/5-2/7---------|

    Verse
  d |------------------------------------------------------------------|
  A |------------------------------------------------------------------|
  F |------------------------------------------------------------------|
  C |2--2-2-2--2-2-2--2-2-2--2/7--2--2-2-2--2-2-2--2-2-2/5-2/7---------|
  G |2--2-2-2--2-2-2--2-2-2--2/7--2--2-2-2--2-2-2--2-2-2/5-2/7---------|
  C |2--2-2-2--2-2-2--2-2-2--2/7--2--2-2-2--2-2-2--2-2-2/5-2/7---------|

  d |------------------------------------------------------------------|
  A |------------------------------------------------------------------|
  F |------------------------------------------------------------------|
  C |2--2-2-2--2-2-2--2-2-2--2/7--2--2-2-2--2-2-2--2-2-2-2222----------|
  G |2--2-2-2--2-2-2--2-2-2--2/7--2--2-2-2--2-2-2--2-2-2-2222----------|
  C |2--2-2-2--2-2-2--2-2-2--2/7--2--2-2-2--2-2-2--2-2-2-2222----------|

    Bridge
  d |------------------------------------------------------------------|
  A |------------------------------------------------------------------|
  F |------------------------------------------------------------------|
  C |10-9-7--10-9-7--10-9-7-5-7-7-7777-5555-1111-----------------------|
  G |10-9-7--10-9-7--10-9-7-5-7-7-7777-5555-1111-----------------------|
  C |10-9-7--10-9-7--10-9-7-5-7-7-7777-5555-1111-----------------------|

   Chorus
  d |------------------------------------------------------------------|
  A |------------------------------------------------------------------|
  F |------------------------------------------------------------------|
  C |2--222/9-8~~--2--222/9-8~~--2--222/9-8~~-9-10-8-9-8-7-5-----------|
  G |2--222/9-8~~--2--222/9-8~~--2--222/9-8~~-9-10-8-9-8-7-5-----------|
  C |2--222/9-8~~--2--222/9-8~~--2--222/9-8~~-9-10-8-9-8-7-5-----------|

    1st Guitar: Solo                                             |Im not
  d |-------------------------------------------------------------------|
  A |------------------------------------------17-------17-------20r-17r|
  F |/16~~151615161516-------------------161516---161516---161516-------|
  C |-----------------17161714~~1617h16~~-------------------------------|
  G |-------------------------------------------------------------------|
  C |-------------------------------------------------------------------|
    quite sure about this part|
  d |------------------------------------------------------------------|
  A |-15r-13r-12r-10r-8r-7r\-/21b\-------------------------------------|
  F |------------------------------------------------------------------|
  C |------------------------------------------------------------------|
  G |------------------------------------------------------------------|
  C |------------------------------------------------------------------|
    2nd Guitar: Intro
  d |------------------------------------------------------------------|
  A |------------------------------------------------------------------|
  F |------------------------------------------------------------------|
  C |2--2-2-2--2-2-2--2-2/5-5\1-1-2--2-2-2--2-2-2--2-2-2/5-2/7---------|
  G |2--2-2-2--2-2-2--2-2/5-5\1-1-2--2-2-2--2-2-2--2-2-2/5-2/7---------|
  C |2--2-2-2--2-2-2--2-2/5-5\1-1-2--2-2-2--2-2-2--2-2-2/5-2/7---------|

  d |------------------------------------------------------------------|
  A |------------------------------------------------------------------|
  F |------------------------------------------------------------------|
  C |2--2-2-2--2-2-2--2-2/5-5\1-1-2--2-2-2--2-2-2--2-2-2--2-10-9-7-----|
  G |2--2-2-2--2-2-2--2-2/5-5\1-1-2--2-2-2--2-2-2--2-2-2--2-10-9-7-----|
  C |2--2-2-2--2-2-2--2-2/5-5\1-1-2--2-2-2--2-2-2--2-2-2--2-10-9-7-----|

  d |------------------------------------------------------------------|
  A |------------------------------------------------------------------|
  F |------------------------------------------------------------------|
  C |10-9-7-5-12-------------------------------------------------------|
  G |10-9-7-5-12-------------------------------------------------------|
  C |10-9-7-5-12-------------------------------------------------------|

   Chorus
  d |------------------------------------------------------------------|
  A |------------------------------------------------------------------|
  F |------------------------------------------------------------------|
  C |2--222/9-8~~--2--222/9-8~~--2--222/9-8~~-9-10-8-9-8-7-5-----------|
  G |2--222/9-8~~--2--222/9-8~~--2--222/9-8~~-9-10-8-9-8-7-5-----------|
  C |2--222/9-8~~--2--222/9-8~~--2--222/9-8~~-9-10-8-9-8-7-5-----------|

  d |------------------------------------------------------------------|
  A |------------------------------------------------------------------|
  F |------------------------------------------------------------------|
  C |2--222/9-8~~--2--222/9-8~~--2--222/9-8~~-9-10-8-9-8-7-5-2---------|
  G |2--222/9-8~~--2--222/9-8~~--2--222/9-8~~-9-10-8-9-8-7-5-2---------|
  C |2--222/9-8~~--2--222/9-8~~--2--222/9-8~~-9-10-8-9-8-7-5-2---------|
Добавлено: 12.03.2012
Другие материалы по этой песне:
  • Аккорды и текст

Страница создана 12.03.2012
http://primanota.ru/dream-evil/bad-dreams-chords.htm
Привет, Гость.
Предлагаем пройти революционный курс по гитаре.
Подарок от PrimaNota.Ru, забирай!