PrimaNota.ru - самый крупный в мире бесплатный архив песенных текстов, аккордов, табулатур и нот


Dream Evil - In Flames You Burn - текст песни, таба, видео

Регистрация Запомнить меня
Войти через:  Facebook Google Twitter Vk Yandex Mail.ru

Dream Evil - In Flames You Burn - текст песни, таба, видео

Печатать
Просмотров: 242
tabber: tboi/white_dragon_paladin@hotmail.com
tuning: drop D
difficuly: intermediate

  //-----------------------------------------//
 //              In Flames You Burn         //
//-----------------------------------------//
<> = artifitial harmonic

intro#1:

simplified version:
Rythm Gtr:           clean
e|---------------------------------------------|
b|---------------------------------------------|
g|-10------10------10----14------14-12-9----12-|x4
d|-12-12--------12----12-12-12---12-10---10-10-|
a|-------0----0----------------0---------------|
d|---------------------------------------------|

e|------------------------------------------------------------------|
b|------------------------------------------------------------------|
g|-----0-----0---------2-----2---------0-----0---------2-----2------|
d|---2---2-----2-----3---3-----3-----2---2-----2-----3---3-----3----|
a|-3-------3-----3-5-------5-----5-3-------3-----3-5-------5-----5--|
d|------------------------------------------------------------------|

e|-----------------1-|
b|-----0-----2---2-2-|
g|---2-----3---2---2-|
d|-3-----5-----------|
a|-------------------|
d|-------------------|

wait

Intro #2

lead:

e|---------------------------------------------------------------|
b|---------------------------------------------------------------|
g|-7-7-7-7-7---7-7-7-7-7-----3------5---6--7-7-7-7-7---7-7-7-7-7-|
d|-7-7-7-7-7---7-7-7-7-7-----3------5---4--5-5-5-5-5---7-7-7-7-7-|
a|-5-5-5-5-5---5-5-5-5-5-----1------3---4--5-5-5-5-5---5-5-5-5-5-|
d|---------------------------------------------------------------|

e|-----------------------------|
b|-----------------------------|
g|-3------5-------3------5---6-|
d|-3------5---7---3------5---6-|
a|-1------3---7---1------3---4-|
d|------------7----------------|

intro #3:            verse:
continuing right after intro #2.

lead:
e|------------------|----------------------------|
b|------------------|----------------------------|
g|-7----------------|--9-----------------9-------|
d|-7----------------|--9-----------------9-------|
a|-5----------------|--7-----------------7-------|
d|------------------|----------------------------|

rhythm: palm muted
e|------------------|----------------------------|
b|------------------|----------------------------|
g|------------------|----------------------------|
d|--------------6540|---------------7650---------|
a|-5555 x15-6540----|--7777 x10-7650-----7777 x4-|
d|------------------|----------------------------|

verse endings:
lead:
1:
e|-----------|
b|-----------|
g|-9------7--|
d|-9------7--|
a|-7------5--|
d|-----------|

2:
e|--------------------|
b|--------------------|
g|7---7---7---7-------|
d|7---7---7---7-------|
a|5---5---5---5---5<>-|
d|--------------------|

3:
e|-----------|
b|-----------|
g|-9------7--|
d|-9------7--|
a|-7------5--|
d|-----------|

4:
e|--------------------------------|
b|--------------------------------|
g|-5------------------------------|
d|-5---7---7---9--9--9------------|
a|-3---7---7---9--9--9------------|
d|-----7---7---9--9--9-9-10-11-12-|

rhythm:

4 is the same as lead.

1 and 3:
3|-------|
b|-------|
g|-------|
d|-5---5-|
a|-5---5-|
d|-5---4-|

2:
e|---------------------------------------|
b|---------------------------------------|
g|-------------------------------------7-|
d|-------------------------------------7-|
a|--5-55555--5-55555--5-55555--5-55555-5-|
d|---------------------------------------|

Will Tab more tomorrow.
Добавлено: 08.03.2012
Другие материалы по этой песне:

Страница создана 08.03.2012
http://primanota.ru/dream-evil/in-flames-you-burn-chords.htm
Привет, Гость.
Предлагаем пройти революционный курс по гитаре.
Подарок от PrimaNota.Ru, забирай!