PrimaNota.ru - самый крупный в мире бесплатный архив песенных текстов, аккордов, табулатур и нот


Disturbed - The Animal - текст песни, таба, видео

Регистрация Запомнить меня
Войти через:  Facebook Google Twitter Vk Yandex Mail.ru

Disturbed - The Animal - текст песни, таба, видео

Печатать
Просмотров: 377
Artist: Disturbed
Album: Asylum
Song: The Animal
Tuning: Half-step down (D# (Sharp) or Eb (Flat)) (D#-G#-C#-F#-A#-D# or Eb-Ab-Db-Gb-Bb-Eb)
Tabbed by: Disturbed1DB


Intro
D#|-------------------------------------------------|
A#|-------------------------------------------------|
F#|-------------------------------------------------|
C#|-------------------------------------------------|
G#|-22-2-2222-22-11-11-55-88--22-2-2222-22-11-11-55-|
D#|-00-0-0000-00-00-00-00-00--00-0-0000-00-00-00-00-|
    ** * **** ** ** ** ** **  ** * **** ** ** ** ** 

Verse Riff 1
D#|----------------------------------------------------|
A#|----------------------------------------------------|
F#|----------------------------------------------------|
C#|----------------------------------------------------|
G#|-22-2-2222-22-11-11-55-88--22-2-2222-22-11-11-55-11-|
D#|-00-0-0000-00-00-00-00-00--00-0-0000-00-00-00-00-00-|


Verse Riff 2 (Simply Verse Riff 1, palm-muted.)
D#|----------------------------------------------------|
A#|----------------------------------------------------|
F#|----------------------------------------------------|
C#|----------------------------------------------------|
G#|-22-2-2222-22-11-11-55-88--22-2-2222-22-11-11-55-11-|
D#|-00-0-0000-00-00-00-00-00--00-0-0000-00-00-00-00-00-|
    ** * **** ** ** ** ** **  ** * **** ** ** ** ** **

Pre-Chorus
D#|----------------------------------------------------------------|
A#|----------------------------------------------------------------|
F#|----------------------------------------------------------------|
C#|----------------------------------------------------------------|
G#|-9-XX-8-XX-9-99-10-10-10-7-9/7/9-XX-8-XX-9-99-10-10-10-XX-12-15-|
D#|-7-XX-7-XX-7-77-8--8--8--5-7/5/7-XX-7-XX-7-77-8--8--8--XX-10-13-|

Chorus (1/2)
D#|--------------------------------------------------------|
A#|--------------------------------------------------------|
F#|--------------------------------------------------------|
C#|----------------------------7-5-7--55-55-55-------2---3-|
G#|-22-22-222-222222--5-4-5-XX-4-4-4--33-33-33--0h2h3-3/5--|
D#|-00-00-000-000000--3-3-3-XX-----------------------------|

Chorus (2/2)
D#|--------------------------------------------------------------|
A#|--------------------------------------------------------------|
F#|--------------------------------------------------------------|
C#|-----------------------------------------5-----5-----4--------|
G#|-22-22-222-222222--5-4-5-XX-7-7-7-777777-3-222-2-222-2-222----|
D#|-00-00-000-000000--3-3-3-XX-5-5-5-555555---000---000---000----|
                                     ******   ***   ***   ***

Solo (1/4)
D#|-----------------------------------------------------------------------15p14------|
A#|--------------------15h16p15---------------------17--19---------------------17p16-|
F#|-----16h17p16--16h17--------17-16h17p16--16h17p16--16--16-16-17p16----------------|
C#|---17--------17------------------------17-------------------------17p16-----------|
G#|-19-------------------------------------------------------------------------------|
D#|----------------------------------------------------------------------------------|

Solo (2/4)
D#|-----------------------------------------------------------------------------------|
A#|--------------------15h16p15---------------------17--19----------------------------|
F#|-----16h17p16--16h17--------17-16h17p16--16h17p16--16--16-16-17p16-----------------|
C#|---17--------17------------------------17-------------------------17p16-19p17p16---|
G#|-19-----------------------------------------------------------------------------17-|
D#|-----------------------------------------------------------------------------------|

Solo (3/4)
D#|-----------------------------------------------------------------------15p14------|
A#|--------------------15h16p15---------------------17--19---------------------17p16-|
F#|-----16h17p16--16h17--------17-16h17p16--16h17p16--16--16-16-17p16----------------|
C#|---17--------17------------------------17-------------------------17p16-----------|
G#|-19-------------------------------------------------------------------------------|
D#|----------------------------------------------------------------------------------|

Solo (4/4)
D#|----22^24^22-15-17^18-17p15----|
A#|-15------------------------17/-|
F#|-------------------------------|
C#|-------------------------------|
G#|-------------------------------|
D#|-------------------------------|

Solo Backing (I'm not 100% sure about this...)
D#|--------------------------------------------------------------------------------|
A#|--------------------------------------------------------------------------------|
F#|--------------------------------------------------------------------------------|
C#|--------------------------------------------------------------------------------|
G#|-22-2-2-22-222-2-2-----------------22-2-2-22-222-2-2------------------9~-9~-9~/-|
D#|-00-0-0-00-000-0-0-5p3p2p0-5p3p2p0-00-0-0-00-000-0-0-8p7p5p0-6p5p3p0--7~-7~-7~/-|

Bridge (1/3)
D#|----------------------------------------------------------|
A#|----------------------------------------------------------|
F#|----------------------------------------------------------|
C#|-9/-----12---7---10/9-------------------------------------|
G#|-7/-----10---5---8-/7----5/7/9----10----9-----------------|
D#|-0--000----0---0------00-3/5/7-00-8--00-7-0h6p5p0-5h6p5p3-|
       ***    *   *      **       **    **  

Bridge (2/3)
D#|----------------------------------------------------------|
A#|----------------------------------------------------------|
F#|----------------------------------------------------------|
C#|-7/-----12---7---10/9-------------------------------------|
G#|-9/-----10---5---8-/7----5/7/9----10----9-----------------|
D#|-0--000----0---0------00-3/5/7-00-8--00-7-8-7-0-7-5-0-5-3-|
       ***    *   *      **       **    **   * * * * * * * *

Bridge (3/3)
D#|-----------------------------------------------------------------------|
A#|-----------------------------------------------------------------------|
F#|-----------------------------------------------------------------------|
C#|-7/-----12---7---10/9--------------------------------------------------|
G#|-9/-----10---5---8-/7----5/7/9----10----9------------------9-XX-9-XX-4-|
D#|-0--000----0---0------00-3/5/7-00-8--00-7-0h6p5p0-5h6p5p3--7-XX-7-XX-2-|
       ***    *   *      **       **    **  


Structure:

Intro
Verse Riff 1
Verse Riff 2
Verse Riff 1
Pre-Chorus
Chorus
Verse Riff 1
Verse Riff 2
Verse Riff 1
Pre-Chorus
Chorus
Solo/Solo Backing
Bridge
Chorus
Chorus
Verse Riff 1


Lyrics:

(Verse 1:)
I can feel the animal inside
And my resolve is weakening
Pounding a the doors of my mind
It's nearly overpowering
I cannot begin to describe
The hunger that I feel again
Run, if you intend to survive
For the beast is coming to life

(Pre-Chorus:)
Taking form in the glimmer of this tainted moonlight
Death approaches...on this night

(Chorus:)
For the animal's soul is mine
We will be completed right before your eyes
I have no control this time
And now, we both shall dine in Hell tonight

(Verse 2:)
I can hear it calling again
The primal need is filling me
Changes are about to begin
ANd now my blood is boiling
I can see the fear in your eyes
But you can't bring yourself to scream
Time to shed the mortal disguise
For the beast is coming to life

(Pre-Chorus:)
Taking form in the glimmer of this tainted moonlight
Death approaches...on this night

(Chorus:)
For the animal's soul is mine
We will be completed right before your eyes
I have no control this time
And now, we both shall dine in Hell tonight

(Solo)

(Bridge:)
We begin the hunt and I
Feel the power course as the creatures take flight
For the kill is close and I...
Will be satisfied
For the smell of fear tonight
Wakes an ancient lust that will not be denied...
You're mine!

(Chorus:)
For the animal's soul is mine
We will be completed right before your eyes
I have no control this time
And now, we both shall dine in Hell tonight
For the animal's soul is mine
And the world around will never hear your cries
An unholy crime...
And now, we both shall dine in Hell tonight


Enjoy, disturbed ones!

(Thanks to maidenbridge666 for a couple corrections.)
Добавлено: 18.04.2012
Другие материалы по этой песне:

Страница создана 22.03.2012
http://primanota.ru/disturbed/the-animal-chords.htm
Привет, Гость.
Предлагаем пройти революционный курс по гитаре.
Подарок от PrimaNota.Ru, забирай!