PrimaNota.ru - самый крупный в мире бесплатный архив песенных текстов, аккордов, табулатур и нот


Disturbed - The Curse - текст песни, таба, бас-таба, видео

Регистрация Запомнить меня
Войти через:  Facebook Google Twitter Vk Yandex Mail.ru

Disturbed - The Curse - текст песни, таба, бас-таба, видео

Печатать
Просмотров: 259
Уроки эстрадного вокала в Санкт-Петербурге
-------------------------------------------------------------------------------
                           Disturbed - The Curse
-------------------------------------------------------------------------------
Tuning : CGCFAD
Name : Zurborg, Marvin
Edited - thanks to "pigeonmafia" for a good suggestion.

Changes since first Version
-Easier Intro Riff
-New Chorus


Main riff
|-------------------------------------------------------------------------------------|
|-------------------------------------------------------------------------------------|
|-------------------------------------------------------------------------------------|
|-------------------------------------------------------------------------------------|
|-------------------------------------------------------------------------------------|
|-0-0h12h13-0h12h13-0h12h13-0h12h13-0h12h13---0h12h13-0h12h13-0h11h12-0h14h15-0h11h12-|
                                                                                     / 4x
|---------------------------------------------------------------------------|      /
|---------------------------------------------------------------------------|     /
|---------------------------------------------------------------------------|   /
|---------------------------------------------------------------8-----7-----|  /
|---------------------------------------------------------------8-----7-----| /
|-0-0h12h13-0h12h13-0h12h13-0h12h13-0h12h13---0h12h13-0h12h13---8-00007-----|/
                                                                  .... 

	
Verse
|------------------------------------------------|\
|------------------------------------------------| \
|------------------------------------------------|  \
|------------------------------------------------|   \
|---5\4/5-----------5\4/5------------------------|    \
|-0-------006\5/6-0-------6\5/6-00-8-0-5-0-88----|     \
                                                        | 2x
|------------------------------------------------|     /
|------------------------------------------------|    /
|------------------------------------------------|   /
|------------------------------------------------|  /
|---5\4/5-----------5\4/5------------------------| /
|-0-------006\5/6-0-------6\5/6-00-8-0-5-0-5-----|/




PreChorus
|-----------------------------|
|-----------------------------|
|-----------------------------|
|-0--0-1--0-1---3--0-1--0-1---| 
|-0--0-1--0-1---3--0-1--0-1---|
|-0--0-1--0-1---3--0-1--0-1---|  4x
Heavy PM




Chorus (repeat the notes)
|-------------------------------|
|-------------------------------|
|-14------15--9-10--5---7--5----|
|--x-------x--x--x--x---x--x----| 
|-12------13--7--8--3---5--3----|
|-------------------------------|


|-------------------------------|
|-------------------------------|
|-14------15--9-10--5-----------|
|--x-------x--x--x--x-----------| 
|-12------13--7--8--3-----------|
|-------------------------------|

|-------------------------------|
|-------------------------------|
|-14------15--9-10--5---7--5----|
|--x-------x--x--x--x---x--x----| 
|-12------13--7--8--3---5--3----|
|-------------------------------|


|-------------------------------|
|-------------------------------|
|-----------------7-----3---3---|
|-----------------x-----x---x---| 
|-----------------3-----1---1---|
|-------------------------0-----|






Main riff
|-------------------------------------------------------------------------------------|
|-------------------------------------------------------------------------------------|
|-------------------------------------------------------------------------------------|
|-------------------------------------------------------------------------------------|
|-------------------------------------------------------------------------------------|
|-0-0h12h13-0h12h13-0h12h13-0h12h13-0h12h13---0h12h13-0h12h13-0h11h12-0h14h15-0h11h12-|
                                                                                     / 1x
|---------------------------------------------------------------------------|      /
|---------------------------------------------------------------------------|     /
|---------------------------------------------------------------------------|   /
|---------------------------------------------------------------8-----7-----|  /
|---------------------------------------------------------------8-----7-----| /
|-0-0h12h13-0h12h13-0h12h13-0h12h13-0h12h13---0h12h13-0h12h13---8-00007-----|/
                                                                  .... 
							   
							  

Verse
|------------------------------------------------|\
|------------------------------------------------| \
|------------------------------------------------|  \
|------------------------------------------------|   \
|---5\4/5-----------5\4/5------------------------|    \
|-0-------006\5/6-0-------6\5/6-00-8-0-5-0-88----|     \
                                                        | 2x
|------------------------------------------------|     /
|------------------------------------------------|    /
|------------------------------------------------|   /
|------------------------------------------------|  /
|---5\4/5-----------5\4/5------------------------| /
|-0-------006\5/6-0-------6\5/6-00-8-0-5-0-5-----|/



PreChorus
|-----------------------------|
|-----------------------------|
|-----------------------------|
|-0--0-1--0-1---3--0-1--0-1---| 
|-0--0-1--0-1---3--0-1--0-1---|
|-0--0-1--0-1---3--0-1--0-1---|  4x
Heavy PM




Chorus (repeat the notes)
|-------------------------------|
|-------------------------------|
|-14------15--9-10--5---7--5----|
|--x-------x--x--x--x---x--x----| 
|-12------13--7--8--3---5--3----|
|-------------------------------|


|-------------------------------|
|-------------------------------|
|-14------15--9-10--5-----------|
|--x-------x--x--x--x-----------| 
|-12------13--7--8--3-----------|
|-------------------------------|

|-------------------------------|
|-------------------------------|
|-14------15--9-10--5---7--5----|
|--x-------x--x--x--x---x--x----| 
|-12------13--7--8--3---5--3----|
|-------------------------------|


|-------------------------------|
|-------------------------------|
|-----------------7-----3---3---|
|-----------------x-----x---x---| break
|-----------------3-----1---1---|
|-------------------------0-----|





Solo background
|----------------------------------------------------|
|----------------------------------------------------|
|--7~~~~--8-8--9---7--8--8--9---7~~~~--8-8--9---7--8-|
|--7~~~~--8-8--9---7--8--8--9---7~~~~--8-8--9---5--8-| 
|--5~~~~--6-6--7---5--6--6--7---5~~~~--6-6--7---5--6-|
|-0------0----0---0--0--0--0---0------0----0---0--0--| 4x


Solo ending
|----------------------------------------|
|----------------------------------------|
|----------------------------------------|
|----------00656---------656-----8-4-33--|
|--5-5/4\5-00656---5\4/5-656-----8-4-33--|
|-0--------00656-0-------656-000-8-4-33--|
  .              .           xxx
  
  
  
  
  
  

  
Chorus (repeat the notes)
|-------------------------------|
|-------------------------------|
|-14------15--9-10--5---7--5----|
|--x-------x--x--x--x---x--x----| 
|-12------13--7--8--3---5--3----|
|-------------------------------|


|-------------------------------|
|-------------------------------|
|-14------15--9-10--5-----------|
|--x-------x--x--x--x-----------| 
|-12------13--7--8--3-----------|
|-------------------------------|

|-------------------------------|
|-------------------------------|
|-14------15--9-10--5---7--5----|
|--x-------x--x--x--x---x--x----| 
|-12------13--7--8--3---5--3----|
|-------------------------------|


|-------------------------------|
|-------------------------------|
|-----------------7-----3---3---|
|-----------------x-----x---x---| 
|-----------------3-----1---1---|
|-------------------------0-----|



|-------------------------------|
|-------------------------------|
|-14------15--9-10--5---7--5----|
|--x-------x--x--x--x---x--x----| 
|-12------13--7--8--3---5--3----|
|-------------------------------|


|-------------------------------|
|-------------------------------|
|-14------15--9-10--5-----------|
|--x-------x--x--x--x-----------| 
|-12------13--7--8--3-----------|
|-------------------------------|

|-------------------------------|
|-------------------------------|
|-14------15--9-10--5---7--5----|
|--x-------x--x--x--x---x--x----| 
|-12------13--7--8--3---5--3----|
|-------------------------------|


|-------------------------------|
|-------------------------------|
|-----------------7-----3---3---|
|-----------------x-----x---x---| 
|-----------------3-----1---1---|
|-------------------------0-----|




Outro
|-----------------------------|
|-----------------------------|
|-----------------------------|
|-0--0-1--0-1---3--0-1--0-1---| 
|-0--0-1--0-1---3--0-1--0-1---|
|-0--0-1--0-1---3--0-1--0-1---|  3x
Heavy PM

|-----------------------------|
|-----------------------------|
|-----------------------------|
|-0--0-1--0-1---3--0-1--0-1~~-| 
|-0--0-1--0-1---3--0-1--0-1~~-|
|-0--0-1--0-1---3--0-1--0-1~~-|
Heavy PM




===============================================================================
| /  slide up
| \  slide down
| h  hammer-on
| p  pull-off
| +  harmonic
| ~  hold (here : repeat)
| .  palm muted
| x  mute note
|    Heavy PM means muting the neck and the bridge
===============================================================================
Добавлено: 16.03.2012
Другие материалы по этой песне:

Страница создана 10.03.2012
http://primanota.ru/disturbed/the-curse-chords.htm
Привет, Гость.
Предлагаем пройти революционный курс по гитаре.
Подарок от PrimaNota.Ru, забирай!