PrimaNota.ru - самый крупный в мире бесплатный архив песенных текстов, аккордов, табулатур и нот


Disturbed - The Infection - текст песни, таба, видео

Регистрация Запомнить меня
Войти через:  Facebook Google Twitter Vk Yandex Mail.ru

Disturbed - The Infection - текст песни, таба, видео

Печатать
Просмотров: 320
-------------------------------------------------------------------------------
                             The Infection - Disturbed
-------------------------------------------------------------------------------
Tabbed by:Mason Rehrig
Email:Zompocto14@yahoo.com

Tuning:c#,g#,c#,f#,a#,d#
I am sorry i do not have the solo at this point

e|-------------------------------------------------------------------------------|
B|-------------------------------------------------------------------------------|
G|-------------------------------------------------------------------------------|
D|-------------------------------------------------------------------------------|
A|-----------------------------------5-----------------------------5-------------|
E|-0-3-0-3-5-3-0-6-5-0-5-0-5-6-0-6-7---0-3-0-3-5-3-0-6-5-0-5-0-5-6---6-5---------|5x

e|-----------------------------------------------------------------------------|
B|-----------------------------------------------------------------------------|
G|-----------------------------------------------------------------------------|
D|-8-8-8-8-8-8-8-8--8--8-8-8-8-8--8-8-8-8-8-8-8-8--8--8-8-8-8-8----------------|
A|-8-8-8-8-8-8-8-8--8--8-8-8-8-8--8-8-8-8-8-8-8-8--8--8-8-8-8-8----------------|
E|-8-8-8-8-8-8-8-8--8--8-8-8-8-8--8-8-8-8-8-8-8-8--8--8-8-8-8-8----------------|

e|-----------------------------------------------------------------------------|
B|-----------------------------------------------------------------------------|
G|-----------------------------------------------------------------------------|
D|-0-0-0-0-0-0-0-0--0--0-0-0-0-0--0-0-0-0-0-0-0-0--0--0-0-0-0-0----------------|
A|-0-0-0-0-0-0-0-0--0--0-0-0-0-0--0-0-0-0-0-0-0-0--0--0-0-0-0-0----------------|
E|-0-0-0-0-0-0-0-0--0--0-0-0-0-0--0-0-0-0-0-0-0-0--0--0-0-0-0-0----------------|
play these two phrases 2 times

e|-----------------------------------------------------------------------------|
B|-----------------------------------------------------------------------------|
G|-----------------------------------------------------------------------------|
D|-5ring------3-5-7ring-----5ring-----7ring-10-10-10-10------------------------|
A|-5ring------3-5-7ring-----5ring-----7ring-10-10-10-10------------------------|
E|-5ring------3-5-7ring-----5ring-----7ring-10-10-10-10------------------------|

e|--------------------------------------------------------------------------------------------|
B|--------------------------------------------------------------------------------------------|
G|--------------------------------------------------------------------------------------------|
D|-0-0--0-2-3-8ring---8-8-8ring---8-8-2ring--2-2ring--0-3-0-2-0-3-0-1--1-1-7ring---7-7-7ring--|
A|-0-0--0-2-3-8ring---8-8-8ring---8-8-2ring--2-2ring--0-3-0-2-0-3-0-1--1-1-7ring---7-7-7ring--|
E|-0-0--0-2-3-8ring---8-8-8ring---8-8-2ring--2-2ring--0-3-0-2-0-3-0-1--1-1-7ring---7-7-7ring--|

e|-----------------------------------------------------------------------------------|
B|-----------------------------------------------------------------------------------|
G|-----------------------------------------------------------------------------------|
D|-----------------------------------------------------------------------------------|
A|-0-0--0-2-3-10ring---10-10-10ring---10-12-8ring---8-8-7ring--7-8-7-8-7-5-3-5ring---|
E|-0-0--0-2-3-10ring---10-10-10ring---10-12-8ring---8-8-7ring--7-8-7-8-7-5-3-5ring---|



************************************

| /   slide up
| \   slide down
| h   hammer-on
| p   pull-off
| ~   vibrato
| +   harmonic
| x   Mute note
| b   Bend
| pb  Pre-bend
| br  Bend release
| pbr Pre-bend release
| brb Bend release bend

************************************
Добавлено: 09.05.2012
Другие материалы по этой песне:

Страница создана 07.03.2012
http://primanota.ru/disturbed/the-infection-chords.htm
Привет, Гость.
Предлагаем пройти революционный курс по гитаре.
Подарок от PrimaNota.Ru, забирай!