PrimaNota.ru - самый крупный в мире бесплатный архив песенных текстов, аккордов, табулатур и нот


Disturbed - Get Psycho - таба, видео

Регистрация Запомнить меня
Войти через:  Facebook Google Twitter Vk Yandex Mail.ru

Disturbed - Get Psycho - таба, видео

Печатать
Просмотров: 215
Band: Disturbed
Song: Get Psycho
Tabbed by: ??Anonymous??

Key:
PM= palm muted
b = bend
r = release bend
/ = slide up

Intro:(Distortion) (Guitar 1)
D|-------------------------------------------------------------------|
A|-------------------------------------------------------------------|
F|-------------------------------------------------------------------|
C|-----------------0-----0-----0-----0----0--4b/7r-------------------|
G|---0-0---0-0---0-0---0-0---0-0---0-0----0--4b/7r-------------------|
C|---0-0---0-0---0-0---0-0---0-0---0-0----0--4b/7r-------------------|
PM=  . .   . .   .     .     .     .

Verse:(Distortion) (Guitar 1)
-NOTE: Guitar 2 is played at the same time into the tab as it is inline with Guitar 1
D|--------------------------------|----------------------------------|
A|--------------------------------|----------------------------------|
F|--------------------------------|----------------------------------|
C|--------------------------------|----------------------------------|
G|-XXX-X-X-X-X-XXX-XXX-X-X-X-X-XXX|-XXX-X-X-X-X-XXX-XXX-X-X-X-X-XXX--|
C|-XXX-X-X-X-X-XXX-XXX-X-X-X-X-XXX|-XXX-X-X-X-X-XXX-XXX-X-X-X-X-XXX--|
PM=... . . . . ... ... . . . . ...  ... . . . . ... ... . . . . ...

(Distortion) (Guitar 2)
D|---------------------------------------------------------------------|
A|---------------------------------------------------------------------|
F|---------------------------------------------------------------------|
C|------------------------------324p------------------------32-0-3-24--|p
G|------------------------------324p------------------------32-0-3-24--|p
C|------------------------------324p------------------------32-0-3-24--|p

Chorus part 1: (Guitar 1)
D|-------------------------------------------------------|
A|-------------------------------------------------------|
F|-------------------------------------------------------|
C|-------------------------------------------------------|
G|-------------------------------------------------------|
C|-3-4-3-2--3-4-3-2--2-3-2-4-3-2-1-2---------------------|

Chorus part 2: (Guitar 1) (Palm Muted)
D|-----------------------------------------------------------------|
A|-----------------------------------------------------------------|
F|-----------------------------------------------------------------|
C|-3-3-3-3-3-3-3-3-3-3-3-3-3-3-3-3-3-3-3-3-3-3-3-3-3-3-3-3-3-3-3-3-|
G|-3-3-3-3-3-3-3-3-3-3-3-3-3-3-3-3-3-3-3-3-3-3-3-3-3-3-3-3-3-3-3-3-|
C|-3-3-3-3-3-3-3-3-3-3-3-3-3-3-3-3-3-3-3-3-3-3-3-3-3-3-3-3-3-3-3-3-|

Verse 2:
D|--------------------------------|----------------------------------|
A|--------------------------------|----------------------------------|
F|--------------------------------|----------------------------------|
C|--------------------------------|----------------------------------| x3
G|-XXX-X-X-X-X-XXX-XXX-X-X-X-X-XXX|-XXX-X-X-X-X-XXX-XXX-X-X-X-X-XXX--|
C|-XXX-X-X-X-X-XXX-XXX-X-X-X-X-XXX|-XXX-X-X-X-X-XXX-XXX-X-X-X-X-XXX--|
PM=... . . . . ... ... . . . . ...  ... . . . . ... ... . . . . ...

(Distortion) (Guitar 2)
D|---------------------------------------------------------------------|
A|---------------------------------------------------------------------|
F|---------------------------------------------------------------------|
C|------------------------------324p------------------------32-0-324p--| x3
G|------------------------------324p------------------------32-0-324---|p
C|------------------------------324p------------------------32-0-324---|p

Breakdown: (Guitar 1) (Distortion)
D|-----------------|
A|-----------------|
F|-----------------|
C|---4-------------| Let ring out
G|---4-------------|
C|---4-------------|

Ending part 1: (Guitar 1) (Distortion)
D|-------------------------------------------------------------------|
A|-------------------------------------------------------------------|
F|-------------------------------------------------------------------|
C|--4-5-2-4-2----4-3-5---3-3-4---5-3-4---4-3-5--3-5------------------|
G|--4-5-2-4-2----4-3-5---3-3-4---5-3-4---4-3-5--3-5------------------|
C|--4-5-2-4-2----4-3-5---3-3-4---5-3-4---4-3-5--3-5------------------|
PM=                                             .

Ending part 2: (Guitar 1) (Distortion)
D|---------------------|
A|---------------------|
F|---------------------|
C|---------------------|
G|-XXX-X-X-X-X-XXX-XXX-|
C|-XXX-X-X-X-X-XXX-XXX-|
PM=... . . . . ... ...

Order:
Intro x1
Verse x4
Chorus part 1 x2
Chorus part 2 x2
Verse x3
Chorus part 1 x2
Chorus part 2 x2
Breakdown x1
Ending part 1 x8
Verse x2
Ending part 2 x1
Добавлено: 27.06.2012
Другие материалы по этой песне:
  • Аккорды и текст

Страница создана 23.04.2012
http://primanota.ru/disturbed/get-psycho-chords.htm
Привет, Гость.
Предлагаем пройти революционный курс по гитаре.
Подарок от PrimaNota.Ru, забирай!