PrimaNota.ru - самый крупный в мире бесплатный архив песенных текстов, аккордов, табулатур и нот


Disturbed - Walk - таба, бас-таба, видео

Регистрация Запомнить меня
Войти через:  Facebook Google Twitter Vk Yandex Mail.ru

Disturbed - Walk - таба, бас-таба, видео

Печатать
Просмотров: 226
Band- Disturbed
Song- Walk(Pantera Cover)
Tuning- Drop D

They played this song on their DVD. So, check it out:

|-------------------------------------------------------------|
|-------------2x----------------------------------------------|
|-------------------------------------------------------------|
|---------------------------------------------------------x\\-|
|-----------------------------------------------------x\\-----|
|-0---0-2-1-0---0-2-1-0---0-2-1-0---0-2-1-0---0-2-1-0---------|

|---------------------------------------------------|
|---------------------------------------------------|
|---------------------------------------------------|
|---------------------------------------------------|
|---------------8----------------6----------------4-|
|-0--0-2-1-0--0-8--0--0-2-1-0--0-6--0--0-2-1-0--0-6-|

|-------------------------|
|-------------------------|
|--------x3---------------|
|-------------------------|
|-------------------------|
|-0-0-0-1-0-3-0-4-0-3-0-1-|

Verse 1
|----------------------------------------------------|
|-----------x2---------------------------------------|
|----------------------------------------------------|
|----------------------------------------------------|
|------------------------------------------------4-4-|
|0--0-2-1-0--0-2-1-0--0-2-1-0--0-2-1-0---0-2-1-0-6-6-|

Pre-Chorus
|-----------------------------------------------|
|---------x2------------------------------------|
|-----------------------------------------------|
|-----------------------------------------------|
|-3--6--7---------------------------------------|
|-5--6--7-0--0-2-1-0--0-2-1-0--0-2-1-0--0-2-1-0-|

|-------------------|
|-------------------|
|-------------------|
|-------------------|
|-3---6---3---2---1-|
|-5---6---3---2---1-|

The chorus is the same as the intro. The second verse is the same as the first and the 
is the same as the first.

SOLO
|---------------------------------10----------------------10-------|
|-12b-13b-10----10-------------------13-10-------------------13-10-|
|-12b--------13----13-12-10-12-13----------13-12-10-12-13----------|
|------------------------------------------------------------------|
|------------------------------------------------------------------|
|------------------------------------------------------------------|

|----------12b-10-12-----10b-----10-|
|--------------------13b-----13b----|
|-13-12-10--------------------------|
|-----------------------------------|
|-----------------------------------|
|-----------------------------------|

|-----10-14-10--10-14-10-14-10----10-------------|
|-13b--------------------------13----13-10-13-10-|
|------------------------------------------------|
|------------------------------------------------|
|------------------------------------------------|
|------------------------------------------------|

|-----------------------------------------|
|----10-----------------------------------|
|-13----13-12-10----12----10h11--10-11-10-|
|----------------12----12-----------------|
|-----------------------------------------|
|-----------------------------------------|

|--------------------------13--15-|
|---------------------------------|
|-11b--10-11b-11--10-11b----------|
|---------------------------------|
|---------------------------------|
|---------------------------------|

|---------6-7-6------------------------------------|
|-3-------------8-5-6-5----------------------------|
|-3---------------------7-4-5-4br--5b-5b--3~-5/-5/-|
|-3-5-3-5------------------------------------------|
|--------------------------------------------------|
|--------------------------------------------------|

|-----------------------------------------------|
|-----------------------------------------------|
|------12~-----12-------12-------12-------12----|
|-x-5/-----/12----12-11----11h12----12-11----11-|
|-----------------------------------------------|
|-----------------------------------------------|

|------------------------------8------10-------14-------17-|
|------------------------3/-/7---7/10----10/13----13/16----|
|-------12----12----12b------------------------------------|
|-11h12----12----12----------------------------------------|
|----------------------------------------------------------|
|----------------------------------------------------------|

|-------20----20----20b-----|
|-16/19----19----19------\\-|
|---------------------------|
|---------------------------|
|---------------------------|
|---------------------------|

After this, he plays the intro and chorus again to end the song.

I was suprised when I heard Dan Donegan play a Dimebag Darrell solo. If he did this 
why couldn't he do Metallica's Fade To Black solo? Anyway, Disturbed did a pretty good job 
such a famous song.

h=hammer-ons
p=pull-offs
/=slide up
\=slide down
*=harmonics
b=bend
\\=Whammy bar dive

That's all so ENJOY!!!!!!
Добавлено: 09.07.2012
Другие материалы по этой песне:
  • Аккорды и текст

Страница создана 13.04.2012
http://primanota.ru/disturbed/walk-chords.htm
Привет, Гость.
Предлагаем пройти революционный курс по гитаре.
Подарок от PrimaNota.Ru, забирай!