PrimaNota.ru - самый крупный в мире бесплатный архив песенных текстов, аккордов, табулатур и нот


Disturbed - Another Way To Die - текст песни, таба, бас-таба, драм-таба, видео

Регистрация Запомнить меня
Войти через:  Facebook Google Twitter Vk Yandex Mail.ru

Disturbed - Another Way To Die - текст песни, таба, бас-таба, драм-таба, видео

Печатать
Просмотров: 443
DISTURBED - ANOTHER WAY TO DIE (With Solo)
TABBED BY: aweisti

KEY:
* PALM MUTE (ALSO MEANS PINCH HARMONIC IN SOLO)
/ SLDE UP
\ SLIDE DOWN
h HAMMER ON
p PULL OFF
~ VIBRATO


INTRO:
Guitar1 (Clean)
Guitar2 (Distorted)
D#|----------------------------------------------------------------|
A#|----------------------------------------------------------------|
F#|----------------------------------------------------------------|
C#|-----0-------------5------5-0------0-------------5--------------|
G#|---0---0---5-8---5------5--------0---0---5-8---5-----5-0-5------|
C#|-0-------8-----9-----8---------0-------8-----9-----8------------|

D#|------------------------------------------------------------|
A#|------------------------------------------------------------|
F#|------------------------------------------------------------|
C#|-----0-------------5-----5-------3---3---3-------5---5-1----| X3
G#|---0---0---5-8---5-----5---0---3---3---3---3---5---5---1----| 
C#|-0-------8-----9-----8-------3---------------5---------1----|

Guitar3 come in at  00:34
D#|----------------------------------------------------------------|
A#|----------------------------------------------------------------|
F#|----------------------------------------------------------------|
C#|---------------------------------------------------3--5---1-0---|
G#|-0-0---0-0--0-0---0-0---0-0--0-0---0-0---0-0--0-0--3--5---1-0---|
C#|-0-0---0-0--0-0---0-0---0-0--0-0---0-0---0-0--0-0--3--5---1-0---|


1:00   
Guitar1 (Guitar 2 come in at 1:03)   
D#|----------------------------------------------------------------|
A#|----------------------------------------------------------------|
F#|----------------------------------------------------------------|
C#|----------------------------------------------------------------|
G#|------------------------------------------------5h8p5-----------|
C#|-1-0-00-00-00-000-0000-00-00-0h3h6-3-000-00-5h6-------h6--3-0-3-|

D#|----------------------------------------------------------------|
A#|----------------------------------------------------------------|
F#|----------------------------------------------------------------|
C#|----------------------------------------------------------------|
G#|--------------5h6p5---------------------------------------------|
C#|-0-2-2--0h5h6-------h6------------------------------------------|
           ...harmonics..

1:09
D#|----------------------------------------------------------------|
A#|----------------------------------------------------------------|
F#|----------------------------------------------------------------|
C#|----------------------------------------------------------------|
G#|------------------------------------------------5h8p5-----------|
C#|-1-0-00-00-00-000-0000-00-00-0h3h6-1-000-00-5h6-------h6--3-0-3-|

D#|----------------------------------------------------------------|
A#|----------------------------------------------------------------|
F#|----------------------------------------------------------------|
C#|----------------------------------------------------------------|
G#|--------------5h6p5---------------------------------------------|
C#|-0-2-2--0h5h7-------h6------------------------------------------|


VERSE 1:17
Guitar's 1&2
D#|----------------------------------------------------------------|
A#|----------------------------------------------------------------|
F#|----------------------------------------------------------------|
C#|-1-----------------------------------1--------------------------|
G#|-1-0-00-00-00-000--0000-00-00-0------1-0-00-00----5h8p5---------|
C#|-1-0-00-00-00-000--0000-00-00-0-3h6--1-0-00-00-5h6-----h6-3-0-3-|
      * ** ** ** ***  **** ** ** *        * ** **
D#|------------------------------------------------------------|
A#|------------------------------------------------------------|
F#|------------------------------------------------------------|
C#|------------------------------------------------------------| X2
G#|--------------5h6p5-----------------------------------------| 
C#|-0-2-2--0h5h7-------h6--------------------------------------|

1:35
D#|----------------------------------------------------------------|
A#|----------------------------------------------------------------|
F#|----------------------------------------------------------------|
C#|----------------------------------------------------------------|
G#|------------------------------------------------5h8p5-----------|
C#|-1-0-00-00-00-000-0000-00-00-0h3h6-1-000-00-5h6-------h6---3-0-3|

D#|----------------------------------------------------------------|
A#|----------------------------------------------------------------|
F#|----------------------------------------------------------------|
C#|----------------------------------------------------------------|
G#|--------------5h6p5---------------------------------------------|
C#|-0-2-2--0h5h6-------h6------------------------------------------|


CHORUS: 1:45
Guitar's 1&2
D#|----------------------------------------------------------------|
A#|----------------------------------------------------------------|
F#|----------------------------------------------------------------|
C#|-3-3-3-3-3-3-------------5-5-5-5-5-5-------------3-3-3-3-3-3-3-3|
G#|-1-1-1-1-1-1-5-5-5-4-4-5-3-3-3-3-3-3-1-1-1-1-1-1-1-1-1-1-1-1-1-1|
C#|-------------5-5-5-4-4-5-------------1-1-1-1-1-1----------------|

D#|----------------------------------------------------------------|
A#|----------------------------------------------------------------|
F#|----------------------------------------------------------------|
C#|-------------5-5-5-5-5-5--8-8-8-8-8-8---------------------------|
G#|-5-5-5-4-4-5-1-1-1-1-1-1--6-6-6-6-6-6---------------------------|
C#|-5-5-5-4-4-5----------------------------------------------------|

2:02-REPEAT 1:09 guitar
2:11-REPEAT VERSE
2:39-REPEAT CHORUS


SOLO: 3:00
(Rhythm guitar play intro through to 3:30 solo then see below solo)

Guitar1
D#|-13b15--13b15r13~-----------------------------------------------|
A#|----------------------------------------------------------------|
F#|------------------/9-10-12-10-10-----*5b7r5~--------------------|
C#|---------------------------------12~---------3b4r3--------------|
G#|---------------------------------------------------3b5r3/5-5~8-5|
C#|----------------------------------------------------------------|

D#|----------------------------------------------------------------|
A#|---------------------6---6~-6~----/8\5~-------------------------|
F#|-------------5---5-7---7-------5~--------7-5--------------------|
C#|---/7-6--5h7---7-----------------------------7-5/7-5------------|
G#|-8---------------------------------------------------h8-5\3/5---|
C#|----------------------------------------------------------------|

D#|-12h13p12-----12h13p12--12-12h13p12-----12h12p13----------------|
A#|---------13-----------13-----------13-----------13--13-13b15r13-|
F#|-----------14------------------------14-----------12------------|
C#|----------------------------------------------------------------|
G#|----------------------------------------------------------------|
C#|----------------------------------------------------------------|

D#|----------------------------------------------------------------|
A#|-10-13~--10h13p10-----------------------------------------------|
F#|------------------12b14r12-10-----10-12-12~--12-10--------------|
C#|------------------------------h12------------------12-----------|
G#|------------------------------------------------------12-10\8~--|
C#|----------------------------------------------------------------|

D#|-20b22---20-18-17-18=15=17=--------13-17p13--13-15-17-T22r13h17-|
A#|-----------------(flutters)------15+--------15------------------|
F#|-------------------------------16+------------------------------|
C#|-----------------------------17+--------------------------------|
G#|----------------------------------------------------------------|
C#|----------------------------------------------------------------|

D#|-T20p13h7-T22p13h17-T20p13h17-T22p13-T20p13-----15p13---13h15h17|
A#|-------------------------------------------h15-------h15--------|
F#|----------------------------------------------------------------|
C#|----------------------------------------------------------------|
G#|----------------------------------------------------------------|
C#|----------------------------------------------------------------|

D#|-p15p13----17p15p13-13p11p10------------------------------------|
A#|-------15--------------------13p12p10---------------------------|
F#|--------------------------------------12p10p9-------------------|
C#|----------------------------------------------12p10-------------|
G#|----------------------------------------------------12-10-8~----|
C#|----------------------------------------------------------------|
                (play around this pattern)


Guitar2
D#|----------------------------------------------------------------|
A#|----------------------------------------------------------------|
F#|----------------------------------------------------------------|
C#|----------------------------------------------------------------|
G#|-3-3-3-3-3-3-3-3--5-5-5-5-5-1-0---------------------------------|
C#|-3-3-3-3-3-3-3-3--5-5-5-5-5-1-0---------------------------------|
    * * * * *

CHORUS 3:37
Guitar's 1&2
D#|----------------------------------------------------------------|
A#|----------------------------------------------------------------|
F#|----------------------------------------------------------------|
C#|-3-3-3-3-3-3-------------5-5-5-5-5-5-------------3-3-3-3-3-3-3-3|
G#|-1-1-1-1-1-1-5-5-5-4-4-5-3-3-3-3-3-3-1-1-1-1-1-1-1-1-1-1-1-1-1-1|
C#|-------------5-5-5-4-4-5-------------1-1-1-1-1-1----------------|

D#|----------------------------------------------------------------|
A#|----------------------------------------------------------------|
F#|----------------------------------------------------------------|
C#|-------------5-5-5-5-5-5--8-8-8-8-8-8---------------------------|
G#|-5-5-5-4-4-5-1-1-1-1-1-1--6-6-6-6-6-6---------------------------|
C#|-5-5-5-4-4-5----------------------------------------------------|


OUTRO 3:54
Guitar's 1&2
D#|-----------------------------------------------------------|
A#|-----------------------------------------------------------|
F#|-----------------------------------------------------------|
C#|-----------------------------------------------------------| X3
G#|-----------------------------------------------------------|
C#|-1-0-00-00-00-000-0000-00-00-0h3h6-------------------------|

D#|----------------------------------------------------------------|
A#|----------------------------------------------------------------|
F#|----------------------------------------------------------------|
C#|----------------------------------------------------------------|
G#|---------------------------------5h6p5--------------------------|
C#|-1-0-00-00-00-000-0000-0-0-0h5h6-------h6-----------------------|

enjoy!
Добавлено: 23.07.2013
Другие материалы по этой песне:
  • Аккорды и текст

Страница создана 27.04.2012
http://primanota.ru/disturbed/another-way-to-die-chords.htm
Привет, Гость.
Предлагаем пройти революционный курс по гитаре.
Подарок от PrimaNota.Ru, забирай!