PrimaNota.ru - самый крупный в мире бесплатный архив песенных текстов, аккордов, табулатур и нот


Dissection - Satanized - текст песни, таба, видео

Регистрация Запомнить меня
Войти через:  Facebook Google Twitter Vk Yandex Mail.ru

Dissection - Satanized - текст песни, таба, видео

Печатать
Просмотров: 166
Уроки эстрадного вокала в Санкт-Петербурге
-------------------------------------------------------------------------------
DISSECTION-Satanized- from Past is Alive- 1997 Necropolis Rec.                          
------------------------------------------------------------------------------
Tabbed by:NihilView
E-mail:

Tuning:E flat, half step down -also played by Decameron-My Shadow album in E tuning and Soulreaper on Written 
                                                                            in B or C tune

e|---------------------------------------------------------------------------|  intro riff
B|---------------------------------------------------------------------------|
G|---------------------------------------------------------------------------|
D|---------------------------------------------------------------------------|
A|-------777--8----------10--11------------7-8------------2-1----------------|
E|---0------------00-0--------------00-0------------00-0------3-2------------|


e|---------------------------------------------------------------------------|
B|---------------------------------------------------------------------------|
G|---------------------------------------------------------------------------|
D|---------------------------------------------------------4--3--------------|
A|----777----8-----------10---11------------7-8------------2--1--4--5--------|
E|--0-------------00-0--------------00-0------------00--0--------2--3--------|


e|---------------------------------------------------------------------------|
B|---------------------------------------------------------------------------| Harmony
G|---------------------------------------------------------------------------|
D|-----------66--5---------------66---5--------------------55----3-----------|
A|---33--66----------33-----66-----------------22-----55---------------------|
E|---------------------------------------------------------------------------|


e|-----------------I----------------------------------------------------------| after harmonies play intro rif
B|-----------------I----------------------------------------------------------|
G|-----------------I----------------------------------------------------------|
D|-----------------I----------------------------------------------------------|
A|--22--33--5------I----------------------------------------------------------|
E|-------------3---I----------------------------------------------------------|


e|---------------------------------------------------------------------------| prechorus
B|---------------------------------------------------------------------------|
G|---------------------------------------------------------------------------|
D|---------------------------------------------------------------------------|
A|---8--sl-7--sl--8----------------------------------------------------------|
E|---6-----5------6----0-3---0-4--3-1----------------------------------------|


e|---------------------------------------------------------------------------|
B|---------------------------------------------------------------------------| Chorus
G|-----------------------12--------------------------------------------------|
D|---9-----10-----9------12--------------------------------------------------|
A|---7-----10-----7------10----8h-10-p-8-------------------------------------|
E|---0-----8------0----------------------------------------------------------|


e|---------------------------------------------------------------------------| Solo back
B|---------------------------------------------------------------------------|
G|---------------------------------------------------------------------------|
D|---------------------------------------------------------------------------|
A|--7777777-----------7777777----1010101010---8h10p8-------------------------|
E|----------888888-----------------------------------------------------------|

   P.M--------------------------------------

e|---------------------------------------------------------------------------| repeat harmonies and intro rif
B|---------------------------------------------------------------------------|
G|---------------------------------------------------------------------------|
D|---------------------------------------------------------------------------|
A|---------------------------------------------------------------------------|
E|---------------------------------------------------------------------------|


************************************

| /   slide up
| \   slide down
| h   hammer-on
| p   pull-off
| ~   vibrato
| +   harmonic
| x   Mute note
| b   Bend
| pb  Pre-bend
| br  Bend release
| pbr Pre-bend release
| brb Bend release bend

************************************
Добавлено: 29.07.2015
Другие материалы по этой песне:
  • Аккорды и текст

Страница создана 22.11.2013
http://primanota.ru/dissection/satanized-chords.htm
Привет, Гость.
Предлагаем пройти революционный курс по гитаре.
Подарок от PrimaNota.Ru, забирай!