PrimaNota.ru - самый крупный в мире бесплатный архив песенных текстов, аккордов, табулатур и нот


Dissection - Black Dragon - текст песни, бас-таба, видео

Регистрация Запомнить меня
Войти через:  Facebook Google Twitter Vk Yandex Mail.ru

Dissection - Black Dragon - текст песни, бас-таба, видео

Печатать
Просмотров: 143
As recorded by Dissection
(From the 2006 Album REINKAOS)

Transcribed by Dragonamyss (dragon666)
	

Words and Music by Jon Nodtveidt
Arranged by Dissection

Gtr I (C F Bb Eb) - 'Bass w/pick'

 Intro
  Moderately Fast Metal Q.=100
 6/8
  Gtr I
  Wx34
|---------|
|---------|
|---------|
|---------|


  E E E E E E   E E E E E E
|-------------|-------------|
|-------------|-------------|
|---0-0-0-0-0-|-0-0-0-0-0-0-|
|-------------|-------------|


   Intro Guitar Solo
    Slightly Faster Q.=104
    E +E.. T Q  +E     E E +e  Q.     E q  Q.     Q.   Q.    8x
||-------------------|--------------|-----------|------------||
||o----------7--(7)\-|--------------|-----------|-----------o||
||o-0-(0)------------|-x------------|-x---------|-3---------o||
||-------------------|-x-3-(3)-3----|-x-1--1----|------3-----||


    H.        +H.        +H.        +H.
||----------|----------|----------|--------|
||o---------|----------|----------|--------|
||o-0-------|-(0)------|-(0)------|-(0)----|
||----------|----------|----------|--------|


                      1.                      2.
  H.        +H.        H.        +H.           H.        +H.
|---------|----------|---------|-----------||----------|--------||
|---------|----------|---------|----------o||----------|--------||
|-0-------|-(0)------|-3-------|-(3)------o||----------|--------||
|---------|----------|---------|-----------||--1-------|-(1)----||


   1st Verse
    E +E.. T Q  +E     E E +e  Q.     E q  Q.     Q.   Q.    8x
||-------------------|--------------|-----------|------------||
||o----------7--(7)\-|--------------|-----------|-----------o||
||o-0-(0)------------|-x------------|-x---------|-3---------o||
||-------------------|-x-3-(3)-3----|-x-1--1----|------3-----||


 Breakdown
  E E E E E E   E E E E E E   E E E E E E   E E E E E E
|-------------|-------------|-------------|--------------|
|-------------|-------------|-------------|--------------|
|-------------|-------------|-------------|--------------|
|-1-1-1-1-1-1-|-1-1-1-1-1-1-|-1-1-1-1-1-1-|-1-1-1-1-1-1--|


  E E E E E E   E E E E E E   Q  Q  E E   E S S E E E E
|-------------|-------------|-----------|---------------|
|-------------|-------------|-2--0------|---------------|
|-0-0-0-0-0-0-|-0-0-0-0-0-0-|-------3-2-|---------3-2-0-|
|-------------|-------------|-----------|-3-3-2-0-------|


  Q  E E E E   Q  E E E E   Q  E E E E   Q  E  E E E
|------------|------------|------------|--------------|
|------------|------------|------------|--------------|
|------------|------------|------------|--------------|
|-1--1-1-1-1-|-1--1-1-1-1-|-1--1-1-1-1-|-1--1-/7-5-7--|


  Q  E E E E   Q  E E E E   Q  E E E E   Q  E E Q
|------------|------------|------------|-------------||
|------------|------------|------------|-------------||
|------------|------2---2-|------------|-------------||
|-0--0-0-0-0-|-0--0---0---|-1--1-1-1-1-|-3--3-3-3\---||


 2nd Verse
  Q.   Q  +E     E E +e  Q.     E q  Q.     Q.   Q.
|--------------|--------------|-----------|------------|
|------7--(7)\-|--------------|-----------|------------|
|--------------|-x------------|-x---------|-3----------|
|--------------|-x-3-(3)-3----|-x-1--1----|------3-----|


  E +E.. T Q  +E     E E +e  Q.     E q  Q.     Q  E E Q
|------------------|--------------|-----------|------------|
|----------7--(7)\-|--------------|-----------|------------|
|-0-(0)------------|-x------------|-x---------|-3--3-------|
|------------------|-x-3-(3)-3----|-x-1--1----|--------3---|


    E +E.. T Q  +E     E E +e  Q.     E q  Q.     Q.   Q.    6x
||-------------------|--------------|-----------|------------||
||o----------7--(7)\-|--------------|-----------|-----------o||
||o-0-(0)------------|-x------------|-x---------|-3---------o||
||-------------------|-x-3-(3)-3----|-x-1--1----|------3-----||


 Chorus
  Q  E E Q    Q  E E Q    Q  E E Q    E E E E E E
|-----------|-----------|-----------|--------------|
|-----------|-----------|-----------|--------------|
|-0--0-0-0--|-0--0-0-0--|-0--0-0-0--|-0-2-3-2-0-2--|
|-----------|-----------|-----------|--------------|


  Q  E E Q    Q  E E Q    Q  Q  E E   Q  Q  E E
|-----------|-----------|-----------|------------|
|-----------|-----------|-----------|------------|
|-0--0-0-0--|-0--0-0-0--|-3--3--3-3-|-3--3--3-3--|
|-----------|-----------|-----------|------------|


  Q  E E Q    Q  E E Q    E E Q.   E   E S S S S Q  E
|-----------|-----------|------------|----------------|
|-----------|-----------|------------|----------------|
|-0--0-0-0--|-0--0-0-0--|-0-0-0----0-|-0-0-0-0-0-0--0-|
|-----------|-----------|------------|----------------|


  Q  E E Q    Q  E E Q    E E E E E E   E E E E E E
|-----------|-----------|-------------|--------------||
|-----------|-----------|-------------|--------------||
|-0--0-0-0--|-0--0-0-0--|-------------|--------------||
|-----------|-----------|-1-1-1-1-1-1-|-1-1-1-1-1-1--||


 Guitar Solo
  E E E E E E   E E E E E E   E E E E E E   E E E E E E
|-------------|-------------|-------------|--------------|
|-------------|-------------|-------------|--------------|
|-------------|-------------|-------------|-3-2-0-5-0-3--|
|-1-1-1-1-1-1-|-1-1-1-1-1-1-|-1-1-1-1-1-1-|--------------|


  E E E E E E   E E E E E E   E E E E E E   E E E E E E
|-------------|-------------|-------------|--------------|
|-------------|-------------|-------------|--------------|
|-0-0-0-0-0-0-|-0-0-0-0-0-0-|-0-0-0-0-0-0-|-0-0-0-0-0-0--|
|-------------|-------------|-------------|--------------|


  E E E E E E   E E E E E E   E E E E E E   E E E E E E
|-------------|-------------|-------------|--------------|
|-------------|-------------|-------------|--------------|
|-------------|-------------|-------------|--------------|
|-1-1-1-1-1-1-|-1-1-1-1-1-1-|-1-1-1-1-1-1-|-1-1-1-1-1-1--|


  Q  E E Q    Q  E E Q    Q  E E E E   E S S E E E E
|-----------|-----------|------------|---------------||
|-----------|-----------|------------|---------------||
|-----------|-----------|------------|---------------||
|-0--0-0-0--|-0--0-0-0--|-1--1-1-1-1-|-3-3-3-3-3-3-3-||


 Interlude
  Q  E Q  E   Q  E Q  E   Q.   Q.     Q.   E E E
|-----------|-----------|-----------|-------------|
|-----------|-----------|-----------|-------------|
|-0--0-0--0-|------0--0-|-3----3----|-3-----------|
|-----------|-0--0------|-----------|------0-2-0--|


  Q.   Q.     Q  E E E E   Q.   Q.     Q.   Q  E
|-----------|------------|-----------|------------|
|-----------|------------|-----------|------------|
|-5----5----|-5--5-5-5-5-|-----------|------------|
|-----------|------------|-1----1----|-1----1--3--|


  Q.   Q.     Q.   E E E   Q.   Q.     Q.   E E E
|-----------|------------|-----------|-------------|
|-----------|------------|-----------|-------------|
|-----------|------------|-----------|-------------|
|-5----5----|-5----5-5-5-|-3----3----|-3----3-3-3--|


  Q  E Q.     Q  E E Q    E S S E Q.     E S S E Q.
|-----------|-----------|--------------|--------------|
|-----------|-----------|--------------|--------------|
|-3--3-3----|-3--3-3-3--|--------------|--------------|
|-----------|-----------|-0-2-1-0-0----|-0-2-1-0-0----|


  Q.   Q.     Q  E E Q    Q.   Q.     Q  E E E E
|-----------|-----------|-----------|-------------|
|-----------|-----------|-----------|-------------|
|-0----0----|-0--0-0-0--|-3----3----|-3--3-0-2-0--|
|-----------|-----------|-----------|-------------|


  Q.   Q.     Q  E E Q    E E E Q.     E E E Q  E
|-----------|-----------|------------|-------------|
|-----------|-----------|------------|-------------|
|-5----5----|-5--5-5-5--|------------|-------------|
|-----------|-----------|-0-1-0-1----|-0-1-0-1--3--|


  Q.   Q.     Q.   E Q    Q  E E Q    Q  E E E E
|-----------|-----------|-----------|-------------|
|-----------|-----------|-----------|-------------|
|-0----0----|-0----0-0--|-----------|-------------|
|-----------|-----------|-3--3-3-3--|-3--3-3-3-3--|


  Q  E Q  E   E E Q  Q    E E Q  S S E   E E Q  S S E
|-----------|-----------|--------------|--------------||
|-----------|---5-2-----|--------------|--------------||
|-3--3-3--3-|-3------5--|--------------|--------------||
|-----------|-----------|-0-0-0--0-0-0-|-0-0-0--0-0-0-||


   Outro Chorus
    E +E.. T Q  +E     E E +e  Q.     E q  Q.     Q.   Q.    3x
||-------------------|--------------|-----------|------------||
||o----------7--(7)\-|--------------|-----------|-----------o||
||o-0-(0)------------|-x------------|-x---------|-3---------o||
||-------------------|-x-3-(3)-3----|-x-1--1----|------3-----||


  E +E.. T Q  +E     E E +e  Q.     E q  Q.     Q.   Q.     Q  +Q    Q
|------------------|--------------|-----------|-----------|--------------*|
|----------7--(7)\-|--------------|-----------|-----------|--------------*|
|-0-(0)------------|-x------------|-x---------|-3---------|--------------*|
|------------------|-x-3-(3)-3----|-x-1--1----|------3----|-5--(5)\------*|



Duration Legend
---------------
W - whole; H - half; Q - quarter; E - 8th; S - 16th; T - 32nd; X - 64th; a - acciaccatura
+ - note tied to previous; . - note dotted; .. - note double dotted
Uncapitalized letters represent notes that are staccato (1/2 duration)
Irregular groupings are notated above the duration line
Duration letters will always appear directly above the note/fret number it represents the
duration for.  Duration letters with no fret number below them represent rests.  Multi-
bar rests are notated in the form Wxn, where n is the number of bars to rest for.  Low
melody durations appear below the staff

Tablature Legend
----------------
 h   - hammer-on
 p   - pull-off
 b   - bend
 pb  - pre-bend
 r   - bend release (if no number after the r, then release immediately)
 /\  - slide into or out of (from/to "nowhere")
 s   - legato slide
 S   - shift slide
 - natural harmonic
[n]  - artificial harmonic
n(n) - tapped harmonic
 ~   - vibrato
 tr  - trill
 T   - tap
 TP  - trem. picking
 PM  - palm muting
\n/  - tremolo bar dip; n = amount to dip
 \n  - tremolo bar down
 n/  - tremolo bar up
/n\  - tremolo bar inverted dip
 =   - hold bend; also acts as connecting device for hammers/pulls
 <> - volume swell (louder/softer)
 x   - on rhythm slash represents muted slash
 o   - on rhythm slash represents single note slash

Misc Legend
-----------
 |  - bar
||  - double bar
||o - repeat start
o|| - repeat end
*|  - double bar (ending)
 :  - bar (freetime)
 $  - Segno
 &  - Coda
Tempo markers -  = BPM(8/16=s8/s16), where s8 = swing 8ths, s16 = swing 16ths

Добавлено: 27.03.2012
Другие материалы по этой песне:

Страница создана 27.03.2012
http://primanota.ru/dissection/black-dragon-chords.htm
Привет, Гость.
Предлагаем пройти революционный курс по гитаре.
Подарок от PrimaNota.Ru, забирай!