PrimaNota.ru - самый крупный в мире бесплатный архив песенных текстов, аккордов, табулатур и нот


Dissection - Infinite Obscurity - аккорды и текст, таба, видео

Регистрация Запомнить меня
Войти через:  Facebook Google Twitter Vk Yandex Mail.ru

Dissection - Infinite Obscurity - аккорды и текст, таба, видео

Печатать
Просмотров: 109
Infinite Obscurity
Dissection
/--------------------------------------------------------------------------
/ The following is the author's own interpertation of the song, to be used/
/ for private use and studying                          /
/--------------------------------------------------------------------------
                DISSECTION - INFINITE OBSCURITY
                From the Album SOMBERLAIN
                Copyright 1993 No Fashion Records

                     Version 1.1 - January 97
                       
Transcribed by: Richard Broadhead II(Displacer) 
For Questions, Comments, Corrections, or Newest Version; 
               please contact Rich Broadhead at ferris@saturn.superlink.net


p  - pull off          h  - hammer on
~  - vibrato           /  - slide up to

classical finger notation
i - index finger
m - middle finger
a - ring finger
k - pinky finger
o - open

I added the way I finger the song, just incase you have trouble
This song is truely great!!!

Tuning: Normal(1:E 2:B 3:G 4:D 5:A 6:E)
BPM: ~68
On Average, every bass note is a new beat, though sometimes 2 bass notes are
in one beat.

|-------------------------|
|-----5-0---1-0-----------|
|-5-------------2---1-2---|
|-------------------------|
|-0-------------------0---|
|-------3-------1---0-----|
  m   a o   i o a   i m
  o     a       i   o o

Riff A                       (end of Riff A)
|-----------------------|---------0-----1-0---0-----|
|-----0h1-0-1-0---0-----|-----0h1---1-0-----3---1-0-|
|-2-------------2---1-2-|-2-------------------------|
|-----------------------|---------2-----3-----------|
|-0-------------------0-|-0-------------------3---2-|
|---------3-----1---0---|-------------------3-------|
  m   o i o i o a o i m   m   o i o i o i o a o i o
  o       a     i   o o   o       m     a   m a   m

|-----------------------|---------0-----1-0-----|
|-----0h1-0-1-0---0-----|-----0h1---1-0-----3-1-|
|-2-------------2---1-2-|-2---------------------|
|-----------------------|---------2-----3-------|
|-0-------------------0-|-0-------------------3-|
|---------3-----1---0---|-------------------3---|
  m   o i o i o a o i m   m   o i o i o i o a i
  o       a     i   o o   o       m     a   m a

|------------------------------|-----------------------|
|----------1/3---1-0-----------|-----0h1-0-------------|
|-1----2/4-------------5/7-2---|-2-----------1-2-------|
|------------------------------|-----------------2-----|
|----------0-------------------|---------------0---3-0-|
|-0----------------3-------1---|-1-------3---0---------|
  i    m m i i   i o   k k a     a   o m o   i m i a o
  o        o       i       i     i       a   o o

|---------------------------|-----------------------|
|-----0h1-0-----------------|-----0h1-0-------------|
|-2-----------5/7-9-7-5-2---|-2-----------1-2-------|
|---------------------------|-----------------2-----|
|-----------------7-5-3-0---|---------------0---3-0-|
|-1-------3-----------------|-1-------3---0---------|
  a   o m o   k k a a a i     a   o m o   i m i a o
  i       i       i i i o     i       a   o o

Riff B                    (end of Riff B)
|-------------------------------|-------------------------|
|-5-5h6p5-3-3h5p3-1-1h3p1-0-----|-1-1h3p1-0-------0-------|
|-----------------------------0-|-----------0---2---1-2---|
|-------------------------------|-------------2-----------|
|-7-------5-------3-------2-----|-0-------------------0---|
|-------------------------------|---------3-----1---0-----|
  i i m i i i k i i i k i o   o   i i a i o o m a o i m
  a       a       a       m       o       a     i   o o

Repeat Riff B
Play Riff A again                  
                          
|-----------------------|---------0-----1-0---------------|
|-----0h1-0-1-0---0-----|-----0h1---1-0-------------------|
|-2-------------2---1-2-|-2-----------------1h4p1-2-------|
|-----------------------|---------2-----3---2---------@---|
|-0-------------------0-|-0-----------------------0---0---|
|---------3-----1---0---|---------------------------------|
  m   o i o i o a o i m   m   o i o i o i o i k i i   o
  o       a     i   o o   o       m     a   m     o

this last note seems an octave lower, probably the bass

For Questions, Comments, Corrections, or Newest Version; 
               please contact Rich Broadhead at ferris@saturn.superlink.net
Добавлено: 02.11.2013
Другие материалы по этой песне:
  • Аккорды и текст

Страница создана 21.04.2012
http://primanota.ru/dissection/infinite-obscurity-chords.htm
Привет, Гость.
Предлагаем пройти революционный курс по гитаре.
Подарок от PrimaNota.Ru, забирай!