PrimaNota.ru - самый крупный в мире бесплатный архив песенных текстов, аккордов, табулатур и нот


Dissection - Elizabeth Bathory - текст песни, таба, видео

Регистрация Запомнить меня
Войти через:  Facebook Google Twitter Vk Yandex Mail.ru

Dissection - Elizabeth Bathory - текст песни, таба, видео

Печатать
Просмотров: 265
Tab by David Ross
Dissection - Elizabeth Bathory

E   -------------------------|
B   -------------------------|
G   ---77\5--------3-----5---| X8
D   ---77\5-X3---3-----5-----|
A   ---55\3----1-----3-------|
D   -------------------------|

E   -------------------------|
B   -------------------------|
G   ---77-66-77----77-66-----| X2
D   ---77-66-77-33-77-66-6---|
A   ---55-44-55-33-55-44-6---|
D   ------------33-------6---|

E   -------------------------|
B   -------------------------|
G   ---77\5--------3-----5---| X4
D   ---77\5-X3---3-----5-----|
A   ---55\3----1-----3-------|
D   -------------------------|

E   -------------------------|
B   -------------------------|
G   ---77-66-77----77-66-----| X2
D   ---77-66-77-33-77-66-6---|
A   ---55-44-55-33-55-44-6---|
D   ------------33-------6---|


E   ----------------------------------------|
B   ----------------------------------------|
G   ---7------5/7-------5/7------5/7--------|
D   ---7-HOLD-5/7-HOLD--5/7-HOLD-5/7-HOLD---|
A   ---5------3/5-------3/5------3/5--------|
D   ----------------------------------------|

E   --------------------|
B   --------------------|
G   -----2--------------| X12
D   ---0-2-3------3-2---|
A   ---0-0-3-HOLD-3-2---|
D   ---0---3------3-2---|

E   -------------------------|
B   -------------------------|
G   ---77\5--------3-----5---| X6
D   ---77\5-X3---3-----5-----|
A   ---55\3----1-----3-------|
D   -------------------------|

E   -------------------------|
B   -------------------------|
G   ---77-66-77----77-66-----| X2
D   ---77-66-77-33-77-66-6---|
A   ---55-44-55-33-55-44-6---|
D   ------------33-------6---|

E   -------|
B   -------|
G   -------| X1
D   ---0---|
A   ---0---|
D   ---0---|

E   -----------------------------------------------------------|
B   -----------------------------------------------------------|
G   -------3---2-----3---2---7-8-5-7-8-5---3---2-----3---2-----|
D   ---3-5---4---4-5---4---4-------------5---4---4-5---4---4---|
A   -----------------------------------------------------------|
D   -----------------------------------------------------------|

E  -----------------6-----6-----6-----6-----------------------------------|
B  ---------------8---7-8---7-8---7-8---7-8-6-8-6-8-6-8-6-8-6-8-6-8-6-8---|
G  ---7-8-5-7-8-5---------------------------------------------------------|
D  -----------------------------------------------------------------------|
A  -----------------------------------------------------------------------|
D  -----------------------------------------------------------------------|

E   -------------------------|
B   -------------------------|
G   ---77\5--------3-----5---| X4
D   ---77\5-X3---3-----5-----|
A   ---55\3----1-----3-------|
D   -------------------------|

E   -------------------------|
B   -------------------------|
G   ---77-66-77----77-66-----| X2
D   ---77-66-77-33-77-66-6---|
A   ---55-44-55-33-55-44-6---|
D   ------------33-------6---|

E   ----------------|
B   ----------------|
G   ----------------|
D   ---0--------0---|
A   ---0-HOLD---0---|
D   ---0--------0---|
Добавлено: 20.05.2012
Другие материалы по этой песне:

Страница создана 29.02.2012
http://primanota.ru/dissection/elizabeth-bathory-chords.htm
Привет, Гость.
Предлагаем пройти революционный курс по гитаре.
Подарок от PrimaNota.Ru, забирай!