PrimaNota.ru - самый крупный в мире бесплатный архив песенных текстов, аккордов, табулатур и нот


Disciple - Scars Remain - текст песни, таба, видео

Регистрация Запомнить меня
Войти через:  Facebook Google Twitter Vk Yandex Mail.ru

Disciple - Scars Remain - текст песни, таба, видео

Печатать
Просмотров: 172
Disciple - SCARS REMAIN

Tabbed by: Brad Spencer


First tab, and just posting this for people that might like to have it. It's structure 
not be amazing, but what I have should be a good 95% correct. If there are any questions, 
them and I might reply.


Key:

. = Palm Mute
x = Dead note
/ = Slide up
~ = Let Ring
* = Pinch Harmonic

Intro:

D|---------------------2-----|---------------------2-----|
A|-----------------------3---|-----------------------3---|
F|-------------------------4-|-------------------------4-|
C|---------0---------0-------|---------0---------0-------|
G|---------0---------0-------|---------0---------0-------|
C|--0-0-0--0--0-0-0--0-------|--0-0-0--0--0-0-0--0-------|
PM: . . .     . . .             . . .     . . .


D|---------------------1-----|---------------------3-----|
A|-----------------------1---|-----------------------3---|
F|---------3---------3-----3-|---------5---------5-----5-|
C|---------3---------3-------|---------5---------5-------|
G|--1-1-1--1--1-1-1--1-------|--3-3-3--3--3-3-3--3-------|
C|---------------------------|---------------------------| x2 (Pick slide at the end of 
second time)

Verse:

D|-----------------------|------------------|----------------|---------------|
A|-----------------------|------------------|----------------|---------------|
F|-------------9--9/10---|--------9--9/10---|--------9--9/10-|-4---6---6---7-|
C|--0---0---0--x--x----0-|-0---0--x--x/x--0-|-0---0--x--x-x--|-x---x---x---x-|
G|--0---0---0--7--7/8--0-|-0---0--7--7/8--0-|-0---0--7--7/8--|-2---4---4---5-|
C|--0---0---0----------0-|-0---0----------0-|-0---0----------|---------------|
    .       .          .       .          .       .

D|-----------------------|------------------|----------------|-------------------|
A|-----------------------|------------------|----------------|-------------------|
F|-------------9--9/10---|--------9--9/10---|--------9--9/10-|-15---14---14---12-|
C|--0---0---0--x--x----0-|-0---0--x--x/x--0-|-0---0--x--x-x--|--x----x----x----x-|
G|--0---0---0--7--7/8--0-|-0---0--7--7/8--0-|-0---0--7--7/8--|-13---12---12---10-|
C|--0---0---0----------0-|-0---0----------0-|-0---0----------|-------------------|
    .       .          .       .          .       .

D|-----------------------|------------------|---------------|---------------|
A|-----------------------|------------------|---------------|---------------|
F|-------------6--6/7----|--------6--6/7----|--------6--6/7-|-3---5---5---7-|
C|--0---0---0--x--x-x--0-|-0---0--x--x/x--0-|-0---0--x--x-x-|-x---x---x---x-|
G|--0---0---0--4--4/5--0-|-0---0--4--4/5--0-|-0---0--4--4/5-|-1---3---3---5-|
C|--0---0---0----------0-|-0---0----------0-|-0---0---------|---------------|
    .       .          .       .          .       .

D|-----------------------|------------------|---------------|-----------------|
A|-----------------------|------------------|---------------|-----------------|
F|-------------6--6/7----|--------6--6/7----|--------6--6/7-|-3-3-3-3-6-6-6-6-|
C|--0---0---0--x--x-x--0-|-0---0--x--x/x--0-|-0---0--x--x-x-|-x-x-x-x-x-x-x-x-|
G|--0---0---0--4--4/5--0-|-0---0--4--4/5--0-|-0---0--4--4/5-|-1-1-1-1-4-4-4-4-|
C|--0---0---0----------0-|-0---0----------0-|-0---0---------|-----------------|
    .       .          .       .          .       .

D|-----------------|----------------|-----------------|-----------------------------|
A|-----------------|----------------|-----------------|-----------------------------|
F|-----------------|----------------|-----------------|-----------------------------|
C|--0~-------------|----------------|--0~-------------|-----------------------------|
G|--0~-------------|----------------|--0~-------------|--5---3-----1-1-1-1-3-3-3-3--|
C|--0~-------------|----------------|--0~-------------|----5---3---1-1-1-1-3-3-3-3--|
                                                         * * * *   . . . . . . . .
Добавлено: 16.05.2012
Другие материалы по этой песне:

Страница создана 25.03.2012
http://primanota.ru/disciple/scars-remain-chords.htm
Привет, Гость.
Предлагаем пройти революционный курс по гитаре.
Подарок от PrimaNota.Ru, забирай!