PrimaNota.ru - самый крупный в мире бесплатный архив песенных текстов, аккордов, табулатур и нот


Disciple - Rise Up - текст песни, таба, бас-таба, видео

Регистрация Запомнить меня
Войти через:  Facebook Google Twitter Vk Yandex Mail.ru

Disciple - Rise Up - текст песни, таба, бас-таба, видео

Печатать
Просмотров: 214
Уроки эстрадного вокала в Санкт-Петербурге
Disciple – Rise Up
Drop C – (CGCFAD)

INTRO
D|------------------------------------------------|
A|------------------------------------------------|
F|------------------------------5-7---------------|
C|----------------------5-7-----------0-5-7-------|
G|-----------0-6-8--------------------------------|
C|--0--5-8-----------0-------0--------------------| (Play 4x)
  P.M  . .   . . .   .  . .  .  . .   . . .

SECOND VERSE
D|---------------------------------------------------------------|
A|---------------------------------------------------------------|
F|------------------------------------------------8-8-8-8-8-8----|
C|-0-0-2-2h3-3-3-2-0-1-1-2-0--0-2-2h3-3-3-2-0-----x-x-x-x-x-x----|
G|-0-0-2-2h3-3-3-2-0-1-1-2-0--0-2-2h3-3-3-2-0-----6-6-6-6-6-6----|
C|-0-0-2-2h3-3-3-2-0-1-1-2-0--0-2-2h3-3-3-2-0--------------------| (Play 2x)


VERSE
D|-------------------------------------|
A|-------------------------------------|
F|-----7--------7----------------------|
C|--------------------------8-8-10-----|
G|--------8h10-----8h10----------------|
C|--0----------------------------------| (Play 4x)


PRE-CHORUS
D|-----------------------------------|
A|-----------------------------------|
F|-------------------8---------------|
C|--0-0--------0-0-x-0---------0-----|
G|--0-0--------0-0-6-0---------0-----|
C|--0-0--------0-0---0---------0-----|


CHORUS
D|-------------------------------------------------|
A|-------------------------------------------------|
F|-------8-8-8-8-----8-8--------8-8-8-8-----8-8----|
C|--0-0--x-x-x-x--0--x-x---0-0--x-x-x-x--0--x-x----|
G|--0-0--6-6-6-6--0--6-6---0-0--6-6-6-6--0--6-6----|
C|--0-0-----------0--------0-0-----------0---------| (Play 2x)


SECOND VERSE
D|--------------------------------|
A|--------------------------------|
F|---7-------7--------------------|
C|-0-7--3h5--7--3h5---8-8-10------|
G|-0-5--3h5--5--3h5---8-8-10------|
C|-0----3h5-----3h5---8-8-10------| (Play 2x)

*It's the same notes as the first time the verse is played but it plays the whole chords 
the second verse*


OUTRO
D|-----------------------------------------------|
A|-----------------------------------------------|
F|-----------------------------------------------|
C|--0—0-6-0-6--0-6-0-6--0-0-6-0-6--0-6-0-6-6-----|
G|--0—0-6-0-6--0-6-0-6--0-0-6-0-6--0-6-0-6-6-----|
C|--0—0-6-0-6--0-6-0-6--0-0-6-0-6--0-6-0-6-6-----| (Play 2x)


ARRANGMENT

 INTRO
 SECOND INTRO
 VERSE
 PRE CHORUS
 CHORUS
 SECOND INTRO  (only play 2x)
 SECOND VERSE
 PRE CHORUS
 CHORUS
 SECOND INTRO
 INTRO
 CHORUS
 OUTRO
Добавлено: 11.06.2012
Другие материалы по этой песне:

Страница создана 20.05.2012
http://primanota.ru/disciple/rise-up-chords.htm
Привет, Гость.
Предлагаем пройти революционный курс по гитаре.
Подарок от PrimaNota.Ru, забирай!