PrimaNota.ru - самый крупный в мире бесплатный архив песенных текстов, аккордов, табулатур и нот


Disciple - Back Again - текст песни, таба, видео

Регистрация Запомнить меня
Войти через:  Facebook Google Twitter Vk Yandex Mail.ru

Disciple - Back Again - текст песни, таба, видео

Печатать
Просмотров: 129
Intro
D |----------------|-----------------|----------------|-----------------|
A |----------------|-----------------|----------------|-----------------|
F |----------------|-------------0---|----------------|-----------------|
C |----------------|-----------------|----------------|-------------0---|
G |-----3-------0--|-----3-----------|-----3-------0--|-----3-----------|
C |--0-----2-1-----|--0-----2-1------|--0-----2-1-----|--0-----2-1------|

                                  7x
D ||--------------------------------||----------------------------------|
A ||*------------------------------*||----------------------------------|
F ||----------------------5--7------||----------------------------------|
C ||--------------------------------||----------------------------------|
G ||*---------------------3--5-----*||----------------------------------|
C ||---000--00-0-0--0--0------------||---000--00-0-0--0---12\-----------|

Verse                                                                 4x
D ||---------------------------------|----------------------------------|
A ||*--------------------3-----------|----------------------3-----------|
F ||---------------------3-----------|----------------------3-----------|
C ||---------------------3-----------|----------------------3-----------|
G ||*--------------------------------|----------------------------------|
C ||---0-----0----0------------------|---0------0----0------------------|

D |----------------------------------|---------------------------------||
A |----------------------3-----------|--------------------------------*||
F |----------------------3-----------|---------( various pick ---------||
C |----------------------3-----------|---------- scratches and --------||
G |----------------------------------|---------- other fills ---------*||
C |----0-----0----0------------------|---0--0---- go here )------------||

Pre-chorus                                                           2x
D ||---------------------------------|---------------------------------||
A ||*--------------------------------|--------------------------------*||
F ||--------8---------8-------8------|-------7---------7-------7-------||
C ||--------6---------6-------6------|-------5---------5-------5-------||
G ||*--0---------0---------0---------|--0---------0---------0---------*||
C ||---0---------0---------0---------|--0---------0---------0----------||

                                  3x
D ||--------------------------------||----------------------------------|
A ||*------------------------------*||----------------------------------|
F ||--5/7-------5/7-------5/7-------||----------------------------------|
C ||--------------------------------||---5--3--0--3----3----------------|
G ||*-3/5-------3/5-------3/5------*||---5--3--0--3----3----------------|
C ||-----0-0-0-0---0-0-0-0---0-0----||---5--3--0--3----3----------------|

Chorus                            3x
D ||--------------------------------||----------------------------------|
A ||*------------------------------*||----------------------------------|
F ||--------------------------------||----------------------------------|
C ||--0-----------------------------||---5--3--0--3-----0--1------------|
G ||*-0---------5----------3--5----*||---5--3--0--3-----0--1------------|
C ||--0-----0---------0-------------||---5--3--0--3-----0--1------------|

                                  3x
D ||--------------------------------||----------------------------------|
A ||*------------------------------*||----------------------------------|
F ||--------------------------------||----------------------------------|
C ||--0-----------------------------||---5--3--0--3-----3--1------------|
G ||*-0---------5----------3--5----*||---5--3--0--3-----3--1------------|
C ||--0-----0---------0-------------||---5--3--0--3-----3--1------------|

Repeat from Verse

Bridge                           4x
D ||--------------------------------||
A ||*------------------------------*||
F ||--------------------------------||
C ||--------0----0----0-------------||
G ||*-------0----0----0------------*||
C ||--------0----0----0-------------||

   Gtr I Solo (w/wah effect)
D |----------------------------------|----------------------------------|
A |----------------------------------|----------------------------------|
F |--12b17-12-12-10------------------|-12b14-10b12r10-------------------|
C |----------------------------------|----------------12~---------------|
G |----------------------------------|----------------------------------|
C |----------------------------------|----------------------------------|
   
D |--------13-10-15-13-17-15-------------------13-10--------------------|
A |--13----------------------18-15-15-13-13-10--------------------------|
F |-----10--------------------------------------------------------------|
C |---------------------------------------------------------------------|
G |---------------------------------------------------------------------|
C |---------------------------------------------------------------------|

D |---13b15-13b15r13---10-----------------------------------------------|
A |---------------------------------------------------------------------|
F |---------------------------------------------------------------------|
C |-------------------------10\-----------------------------------------|
G |---------------------------------------------------------------------|
C |---------------------------------------------------------------------|

D |---------------------------------------------------------------------|
A |---------------------------------------------------------------------|
F |----------9-10----------9-10----------9-10----------9-10-------------|
C |--9-10-12-------9-10-12-------9-10-12-------9-10-12------------------|
G |---------------------------------------------------------------------|
C |---------------------------------------------------------------------|

D |---------------------------------------------------------------------|
A |---------------------------------------------------------------------|
F |-----------10-11-----------10-11-----------10-11-----------10-11-----|
C |--10-11-12--------10-11-12--------10-11-12--------10-11-12-----------|
G |---------------------------------------------------------------------|
C |---------------------------------------------------------------------|

D |---------------------------------------------------------------------|
A |---------------------------------------------------------------------|
F |-----------11-12-----------11-12-----------12-13-----------13-14-----|
C |--11-12-13--------11-12-13--------12-13-14--------13-14-15-----------|
G |---------------------------------------------------------------------|
C |---------------------------------------------------------------------|

D |--------------------------22\-----|
A |----------------------0-----------|
F |--------14------------------------|
C |--14-16----16-14-16---------------|
G |----------------------------------|
C |----------------------------------|

    Gtr II (during Gtr I solo)                                       2x
D ||----------------|----------------|---------------|-----------------||
A ||*---------------|----------------|---------------|----------------*||
F ||--------8-8-8---|-------8-8-8----|-------8-8-8---|-------8-8-8-----||
C ||--------6-6-6---|-------6-6-6----|-------6-6-6---|-------6-6-6-----||
G ||*---0--0-0-0----|---0--0-0-0-----|---0--0-0-0----|---0--0-0-0-----*||
C ||----0--0-0-0----|---0--0-0-0-----|---0--0-0-0----|---0--0-0-0------||

Post-solo Bridge                  3x
D ||--------------------------------||----------------------------------|
A ||*------------------------------*||----------------------------------|
F ||--------------------------------||----------------------------------|
C ||--------------------------------||------------------5--4~5~4~5~4----|
G ||*-----------5----------3--5----*||----------------------------------|
C ||--0---0-----------0-------------||---5--3--0--3---------------------|

                                  3x
D ||--------------------------------||----------------------------------|
A ||*------------------------------*||----------------------------------|
F ||--------------------------------||----------------------------------|
C ||--------------------------------||---5--3--0--3-----3---------------|
G ||*-----------5----------3--5----*||---5--3--0--3-----3---------------|
C ||--0---0-----------0-------------||---5--3--0--3-----3---------------|

Repeat Chorus

Ending  Palm muted
D ||---------------------------------|----------------------------------|
A ||---------------------------------|----------------------------------|
F ||---------------------------------|----------------------------------|
C ||---------------------------------|---------------------------0------|
G ||---------------------------------|-----------------------1-3--------|
C ||-----0---0---00---00---0---00---0|0---0---00---00---00--------------|

D ||---------------------------------|----------------------------------|
A ||---------------------------------|----------------------------------|
F ||---------------------------------|----------------------------------|
C ||---------------------------------|------------------5--4~5~4~5~4----|
G ||---------------------------------|----------------------------------|
C ||-----0---0---00---00---0---00---0|0---0---00---00-------------------|
       
D ||---------------------------------|----------------------------------|
A ||---------------------------------|----------------------------------|
F ||---------------------------------|----------------------------------|
C ||---------------------------------|---------------------------0------|
G ||---------------------------------|-----------------------1-3--------|
C ||-----0---0---00---00---0---00---0|0---0---00---00---00--------------|

D ||---------------------------------|---------------------------------||
A ||---------------------------------|---------------------------------||
F ||---------------------------------|---------------------------------||
C ||-----0-0------0-0------0-0-------|-0-0-----------------------------||
G ||-----0-0------0-0------0-0-------|-0-0-----------------------------||
C ||-----0-0---00-0-0---00-0-0---00--|-0-0--000------------------------||

Добавлено: 23.02.2012
Другие материалы по этой песне:
  • Аккорды и текст

Страница создана 23.02.2012
http://primanota.ru/disciple/back-again-chords.htm
Привет, Гость.
Предлагаем пройти революционный курс по гитаре.
Подарок от PrimaNota.Ru, забирай!