PrimaNota.ru - самый крупный в мире бесплатный архив песенных текстов, аккордов, табулатур и нот


Dir En Grey - Dead Tree - текст песни, бас-таба, видео

Регистрация Запомнить меня
Войти через:  Facebook Google Twitter Vk Yandex Mail.ru

Dir En Grey - Dead Tree - текст песни, бас-таба, видео

Печатать
Просмотров: 235
Авторы музыки: DIR EN GREY
Авторы текста: 京
This is my fav. song from dir en grey
also This is my first bass tab but its pretty accurate I think
so here you go. 
Band: Dir en grey
song: dead tree
tuning: C#G#C#F# (drop D + Half step down)


4\4 time
    rest          Fig.1            end Fig.1
                   Q+E    S S S E  E  S S S
F#|--------|7X   |--------------------------|
C#|--------|     |------------7-------------|
G#|--------|     |--------------7--5--3-----|
C#|--------|     |--------7-5-----------7-5-|



   Riff A
    Q   E  S E  E  S E  E    Q   E  S E  E  S E  E
F#|------------------------|------------------------|
C#|------------------------|------------------------|
G#|-------------3--2-3--2--|-------------3--2-3--2--|
C#|-7\s\2--2-3-------------|-7\s\2--2-3-------------|



                                          end Riff A
   Q    E  S E  S E  E  E    Q   E  S E  E  S E  E
F#|------------------------|------------------------|| repeat 5X
C#|------------------------|------------------------||
G#|------------------------|-------------3--2-3--5--||
C#|-6\s\2--2-3--2-3--4--5--|-7\s\2--2-3-------------||



   Fig.2
    Q   E  S E  E  S E  E    Q   E  S E  E  S E  E
F#|------------------------|------------------------|
C#|------------------------|------------------------|
G#|-------------3--2-3--2--|-------------3--2-3--2--|
C#|-7\s\2--2-3-------------|-7\s\2--2-3-------------|



                              end Fig.2
   Q    E  S E  S E  E  E    Q   H+Q
F#|------------------------|-----------||
C#|------------------------|-----------||
G#|------------------------|-----------||
C#|-6\s\2--2-3--2-3--4--5--|-7\s\7-----||



    rest

F#|--------|4X
C#|--------|
G#|--------|
C#|--------|



   Fig.3
    S E  S E  S E  S S  Q+S  S E  S E  S E  S S  Q+S
F#|------------------------|-------------------------|
C#|------------------------|-------------------------|
G#|------------------------|-------------------------|
C#|-5-7--7-7--5-7--7-7-----|-5-7--7-7--5-7--7-7------|



                                            end fig.3
    S E  S E  S E  S S  Q+S  S E  S E  S E  S E  Q
F#|------------------------|-------------------------|
C#|------------------------|-------------------------|
G#|------------------------|-------------------------|
C#|-5-7--7-7--5-7--7-7-----|-5-7--7-7--5-7--7-7--8---|



   Riff B
    S E  S E  S E  S E  S E  S  S E  S E  S E  S E  S E  S
F#|---------------------------|---------------------------|
C#|---------------------------|---------------------------|
G#|---------------------------|---------------------------|
C#|-5-7--7-7--5-7--7-7--5-7---|-5-7--7-7--5-7--7-7--5-7---|



                                                end Riff B
    S E  S E  S E  S E  S E  S  S E  S E  S E  S E  S E  S
F#|---------------------------|---------------------------|| repeat 2X
C#|---------------------------|---------------------------||
G#|---------------------------|---------------------------||
C#|-5-7--7-7--5-7--7-7--5-7---|-5-7--7-7--5-7--7-7--5-7---||



   Fig.4    endFig.4
    Q+E  Q   Q+E
F#|----------------||
C#|----------------||
G#|----------------||
C#|-7----8---10----||


3\4 time
   Riff C
    E  E  E  E  E  E    E  E  E  E  E  E
F#|-------------------|-------------------|
C#|-------------------|-------------------|
G#|-------------------|-------------------|
C#|-0--0--0--0--0--0--|-2--2--2--2--2--2--|




    E  E  E  E  E  E    E  E  E  E  E  E
F#|-------------------|-------------------|
C#|-------------------|-------------------|
G#|-------------------|-------------------|
C#|-3--3--3--3--3--3--|-2--2--2--7--7--7--|




    E  E  E  E  E  E    E  E  E  E  E  E
F#|-------------------|-------------------|
C#|-------------------|-------------------|
G#|-------------------|-------------------|
C#|-0--0--0--0--0--0--|-2--2--2--2--2--2--|



                                end Riff C
    E  E  E  E  E  E    E  E  E  E  E  E
F#|-------------------|-------------------|| repeat 2X
C#|-------------------|-------------------||
G#|-------------------|-------------------||
C#|-3--3--3--3--3--3--|-2--2--2--7--5--3--||



   Fig.5                               end Fig.5
    Q   E Q   E   Q   E E E E   H+Q  hold H+Q
F#|-------------|-------------|--------|--------||
C#|-------------|-------------|--------|--------||
G#|-------------|-------------|--------|--------||
C#|-0-----0-----|-0-----0-0---|-0------|-(0)----||


4\4 time
    rest

F#|--------|7X
C#|--------|
G#|--------|
C#|--------|


 
   Fig.6  end Fig.6
   H+Q         S S S S
F#|--------------------|
C#|------------7-------|
G#|--------------7-5-3-|
C#|--------------------|



   Riff A
    Q   E  S E  E  S E  E    Q   E  S E  E  S E  E
F#|------------------------|------------------------|
C#|------------------------|------------------------|
G#|-------------3--2-3--2--|-------------3--2-3--2--|
C#|-7\s\2--2-3-------------|-7\s\2--2-3-------------|



                                          end Riff A
   Q    E  S E  S E  E  E    Q   E  S E  E  S E  E
F#|------------------------|------------------------|| repeat 2X
C#|------------------------|------------------------||
G#|------------------------|-------------3--2-3--5--||
C#|-6\s\2--2-3--2-3--4--5--|-7\s\2--2-3-------------||



   Fig.7
    Q   Q+E+S    S E  E    Q   E  S E  E  S E  E
F#|----------------------|------------------------|
C#|----------------------|------------------------|
G#|--------------3-3--2--|-------------3--2-3--2--|
C#|-----7----------------|-7\s\2--2-3-------------|




   Q    E  S E  S E  E  E    Q   E  S E  E  S E  E
F#|------------------------|------------------------|
C#|------------------------|------------------------|
G#|------------------------|-------------3--2-3--5--|
C#|-6\s\2--2-3--2-3--4--5--|-7\s\2--2-3-------------|




    Q   E  S E  E  S E  E    Q   E  S E  E  S E  E
F#|------------------------|------------------------|
C#|------------------------|------------------------|
G#|-------------3--2-3--2--|-------------3--2-3--2--|
C#|-7\s\2--2-3-------------|-7\s\2--2-3-------------|



                                    end Fig.7
   Q    E  S E  S E  E  E    Q   E  H+E
F#|------------------------|-----------------||
C#|------------------------|-----------------||
G#|------------------------|--------5--------||
C#|-6\s\2--2-3--2-3--4--5--|-5\s\7-----------||



   Fig.3
    S E  S E  S E  S S  Q+S  S E  S E  S E  S S  Q+S
F#|------------------------|-------------------------|
C#|------------------------|-------------------------|
G#|------------------------|-------------------------|
C#|-5-7--7-7--5-7--7-7-----|-5-7--7-7--5-7--7-7------|



                                            end fig.3
    S E  S E  S E  S S  Q+S  S E  S E  S E  S E  Q
F#|------------------------|-------------------------|
C#|------------------------|-------------------------|
G#|------------------------|-------------------------|
C#|-5-7--7-7--5-7--7-7-----|-5-7--7-7--5-7--7-7--8---|



   Riff B
    S E  S E  S E  S E  S E  S  S E  S E  S E  S E  S E  S
F#|---------------------------|---------------------------|
C#|---------------------------|---------------------------|
G#|---------------------------|---------------------------|
C#|-5-7--7-7--5-7--7-7--5-7---|-5-7--7-7--5-7--7-7--5-7---|



                                                end Riff B
    S E  S E  S E  S E  S E  S  S E  S E  S E  S E  S E  S
F#|---------------------------|---------------------------|| repeat 2X
C#|---------------------------|---------------------------||
G#|---------------------------|---------------------------||
C#|-5-7--7-7--5-7--7-7--5-7---|-5-7--7-7--5-7--7-7--5-7---||



   Fig.4    endFig.4
    Q+E  Q   Q+E
F#|----------------||
C#|----------------||
G#|----------------||
C#|-7----8---10----||


3\4 time
   Riff C
    E  E  E  E  E  E    E  E  E  E  E  E
F#|-------------------|-------------------|
C#|-------------------|-------------------|
G#|-------------------|-------------------|
C#|-0--0--0--0--0--0--|-2--2--2--2--2--2--|




    E  E  E  E  E  E    E  E  E  E  E  E
F#|-------------------|-------------------|
C#|-------------------|-------------------|
G#|-------------------|-------------------|
C#|-3--3--3--3--3--3--|-2--2--2--7--7--7--|




    E  E  E  E  E  E    E  E  E  E  E  E
F#|-------------------|-------------------|
C#|-------------------|-------------------|
G#|-------------------|-------------------|
C#|-0--0--0--0--0--0--|-2--2--2--2--2--2--|



                                end Riff C
    E  E  E  E  E  E    E  E  E  E  E  E
F#|-------------------|-------------------|
C#|-------------------|-------------------|
G#|-------------------|-------------------|
C#|-3--3--3--3--3--3--|-2--2--2--7--5--3--|



   Fig.8
    E  E  E  E  E  E    E  E  E  E  E  E
F#|-------------------|-------------------|
C#|-------------------|-------------------|
G#|-------------------|-------------------|
C#|-0--0--0--0--0--0--|-2--2--2--2--2--2--|




    E  E  E  E  E  E    E  E  E  E  E  E
F#|-------------------|-------------------|
C#|-------------------|-------------------|
G#|-------------------|-------------------|
C#|-3--3--3--3--3--3--|-2--2--2--7--7--7--|




    E  E  E  E  E  E    E  E  E  E  E  E
F#|-------------------|-------------------|
C#|-------------------|-------------------|
G#|-------------------|-------------------|
C#|-0--0--0--0--0--0--|-2--2--2--2--2--2--|



                                end Fig.8
    E  E  E  E  E  E    E  E  E  E  E  E
F#|-------------------|-------------------|
C#|-------------------|-------------------|
G#|-------------------|-------------------|
C#|-5--5--5--5--5--3--|-2--2--2--7--5--3--|




    Q   H
F#|------------||
C#|------------||
G#|------------||
C#|-0----------||




W  - whole note
H  - Half note
Q  - Quarter note
E  - Eight note
S  - Sixteenth note
s/ - slide up
s\ - slide down
   

tabbed by INFERNUS666
Добавлено: 14.07.2012
Другие материалы по этой песне:

Страница создана 24.02.2012
http://primanota.ru/dir-en-grey/dead-tree-chords.htm
Привет, Гость.
Предлагаем пройти революционный курс по гитаре.
Подарок от PrimaNota.Ru, забирай!