PrimaNota.ru - самый крупный в мире бесплатный архив песенных текстов, аккордов, табулатур и нот


Dir En Grey - Garden - текст песни, таба, видео

Регистрация Запомнить меня
Войти через:  Facebook Google Twitter Vk Yandex Mail.ru

Dir En Grey - Garden - текст песни, таба, видео

Печатать
Просмотров: 162
Авторы музыки: DIR EN GREY
Авторы текста: 京
-------------------------------------------------------------------------------
                             DIR EN GREY - Garden
-------------------------------------------------------------------------------
Tabbed by:JR107

Email:fashionbomb91@hotmail.com
Tuning: EADGBe

Kind of a finger twisting song to play.


RIFF1
A part
Die
e|-5--5--3--x-5--5--3--x-5--5--x-x-7--x-8--7--7------------------------------|
B|-5--5--5--x-5--5--5--x-6--6--x-x-6--x-6--6--6------------------------------|
G|-5--5--5--x-5--5--5--x-5--5--x-x-5--x-5--5--5------------------------------|
D|---------------------------------------------------------------------------|
A|---------------------------------------------------------------------------|
E|---------------------------------------------------------------------------|

Kaoru
e|---------------------------------------------------------------------------|
B|-1--1--1-0-1-1--1--3--1----------------------------------------------------|
G|-2--2--2-0-2-0--0--0--2----------------------------------------------------|
D|-2--2--------2--2--2--3--7\--3/--10--10--9-10------------------------------|
A|-0--0--------3--3----------------------------------------------------------|
E|---------------------------------------------------------------------------|

B part
Die
e|-5--5--3--x-5--5--3--x-5--5--x-x-5--x-x-5--x-5--x-5------------------------|
B|-5--5--5--x-5--5--5--x-6--6--x-x-6--x-x-6--x-6--x-5------------------------|
G|-5--5--5--x-5--5--5--x-5--5--x-x-5--x-x-5--x-5--x-5------------------------|
D|---------------------------------------------------------------------------|
A|---------------------------------------------------------------------------|
E|---------------------------------------------------------------------------|

Kaoru                     bend full     bend full
e|-------------------3--1----------------------------------------------------|
B|-1--1--1-0-1-1--1--3--1----------------------------------------------------|
G|-2--2--2-0-2-0--0--0--2--8^----7-------------------------------------------|
D|-2--2--------2--2--2--3---------10-9-10^--10-9-----------------------------|
A|-0--0--------3--3----------------------------------------------------------|
E|---------------------------------------------------------------------------|

A part again

C part
Die                       sustain
e|-5--5--3--x-5--5--3--x-5---------------------------------------------------|
B|-5--5--5--x-5--5--5--x-6---------------------------------------------------|
G|-5--5--5--x-5--5--5--x-5---------------------------------------------------|
D|---------------------------------------------------------------------------|
A|---------------------------------------------------------------------------|
E|---------------------------------------------------------------------------|

Kaoru                   sustain
e|-------------------3--1----------------------------------------------------|
B|-1--1--1-0-1-1--1--3--2----------------------------------------------------|
G|-2--2--2-0-2-0--0--0--2----------------------------------------------------|
D|-2--2--------2--2--2--3----------------------------------------------------|
A|-0--0--------3--3----------------------------------------------------------|
E|---------------------------------------------------------------------------|

RIFF2 Verse (play twice)
Die 
e|-----------------------------------------------------------------------------------|
B|----------5--------5-----------5--------7-----------5-------5-----------7--------5-|
G|----5--------5-----------5--------7-----------5--------5----------4--------4-------|
D|-7-----7--------7-----7-----7--------5-----7-----7--------7----5-----5--------6----|
A|-----------------------------------------------------------------------------------|
E|-----------------------------------------------------------------------------------|

Kaoru
e|-0------x---0-----0------x---0-----1----x---1-----3------x---3-----4-------|
B|-1------x---1-----1------x---1-----1----x---1-----3------x---3-----4-------|
G|-1------x---2-----0------x---0-----2----x---2-----4------x---4-----5-------|
D|-2------x---2-----2------x---2-----3----x---3-----5------x---5-----6-------|
A|-0------x---0-----3------x---3---------------------------------------------|
E|---------------------------------------------------------------------------|


RIFF3 Pre-chorus
A part
Die
e|------------------------------------5-5--x-5-5--x-5-5--x-5-5---------------|
B|------------------------------------5-5--x-5-5--x-5-5--x-5-5---------------|
G|-2-----/10-------10-x-12-x-14-x-x-x-5-5--x-5-5--x-5-5--x-5-5---------------|
D|-x-----/x--------x--x-x--x-x--x-x-x-7-7--x-7-7--x-7-7--x-7-7---------------|
A|-0-----/8--------8--x-10-x-12-x-x-x----------------------------------------|
E|---------------------------------------------------------------------------|

Kaoru
e|---------------------------------------------------------------------------|
B|-1----/6-------------------------------------------------------------------|
G|----------------10--------12--10--12-14\-14-16\-16-19\-19--17--------------|
D|---------------------------------------------------------------------------|
A|---------------------------------------------------------------------------|
E|---------------------------------------------------------------------------|

B part
Die
e|------------------------------------5-5--x-5-5--x-5-5--x-5-5---------------|
B|------------------------------------5-5--x-5-5--x-5-5--x-5-5---------------|
G|-2-----/10-------10-x-12-x-10-x-5---7-7--x-7-7--x-7-7--x-7-7---------------|
D|-x-----/x--------x--x-x--x-x--x-----7-7--x-7-7--x-7-7--x-7-7---------------|
A|-0-----/8--------8--x-10-x-8--x-3------------------------------------------|
E|---------------------------------------------------------------------------|

Kaoru
e|---------------------------------------------------------------------------|
B|---------------------------------------------------------------------------|
G|-10--------------10--------9-----------------------------------------------|
7D|------------------------------10-9-7\--7-9\--9-12\--12--10----------------|
A|---------------------------------------------------------------------------|
E|---------------------------------------------------------------------------|

then A part again

C part
Die
e|---------------------------------------------------------------------------|
B|---------------------------------------------------------------------------|
G|-2-----/10-------10-x-12-x-10-x-x-x-9-9--x-9-9--x-9-9--x-9-9---------------|
D|-x-----/x--------x--x-x--x-x--x-x-x-9-9--x-9-9--x-9-9--x-9-9---------------|
A|-0-----/8--------8--x-10-x-8--x-x-x-7-7----7-7----7-7----7-7---------------|
E|---------------------------------------------------------------------------|

Kaoru
e|---------------------------------------------------------------------------|
B|------------------------------------------------------------9--------------|
G|-10--------------12--------10-----------------------9-9-10--9--------------|
D|------------------------------10-----------9-----12---------9--------------|
A|---------------------------------12-10\2/7---8-7---------------------------|
E|---------------------------------------------------------------------------|

thats it for now, Ill finish later.

Добавлено: 16.03.2012
Другие материалы по этой песне:

Страница создана 26.02.2012
http://primanota.ru/dir-en-grey/garden-chords.htm
Привет, Гость.
Предлагаем пройти революционный курс по гитаре.
Подарок от PrimaNota.Ru, забирай!