PrimaNota.ru - самый крупный в мире бесплатный архив песенных текстов, аккордов, табулатур и нот


Dir En Grey - Embryo - текст песни, бас-таба, видео

Регистрация Запомнить меня
Войти через:  Facebook Google Twitter Vk Yandex Mail.ru

Dir En Grey - Embryo - текст песни, бас-таба, видео

Печатать
Просмотров: 197
Авторы музыки: 薫
Авторы текста: 京
Ahh...i have been working alot on tabing out songs from Kisou...enjoy!
^_^



F||------|------|------|----------------------------|-------------------------|
C||------|------|------|----------------------------|-------------------------|
G||------|------|------|--10/-8---------------------|-------------------------|
D||------|------|------|---------8/-10/-6--6--8/-1--|--3--1--1/-6----0--3--1--|


                                                                              
-------------------------|--------------------------|-------------------------|
-------------------------|--------------------------|-------------------------|
-------------------------|--------------------------|-------------------------|
--3--1--1/-6----0--3--1--|--3--1--1/-6-----0--3--1--|--3--1--1/-6----0--3--1--|


                                                                              
-------------------------|--------------------------|-------------------------|
-------------------------|--------------------------|-------------------------|
-------------------------|--------------------------|-------------------------|
--3--1--1/-6----0--3--1--|--3--1--1/-6-----0--3--1--|--3--1--1/-6----0--3--1--|


                                                                               
--------------------------|--------------------------|-------------------------|
--------------------------|--------------------------|-------------------------|
-----------5/-3-----------|--------------------------|-------------------------|
--3/-1--1/-------6--5--1--|--3--1--1/-6-----0--3--1--|--3--1--1/-6----0--3--1--|


                                                                              
-------------------------|--------------------------|-------------------------|
-------------------------|--------------------------|-------------------------|
-------------------------|--------------------------|-------------------------|
--3--1--1/-6----0--3--1--|--3--1--1/-6-----0--3--1--|--3--1--1/-6----0--3--1--|


                                                                             
-------------------------|--------------------------|------------------------|
-------------------------|--------------------------|------------------------|
-------------------------|--------------------------|-----------5------------|
--3--1--1/-6----0--3--1--|--3--1--1/-6-----0--3--1--|--3/-1--1/------6/---1--|


                                                                                
--------------------------|---------------------------|-------------------------|
--------------------------|---------------------------|-------------------------|
--------------------------|---------------------------|-------------------------|
--5/-3--3--5----3/5/3--0--|--5/-3--3--5-----3/5/3--0--|--6h-5--5--6----6--5--1/-|


                                                                                 
--------------------------|---------------------------|--------------------------|
-----------------------3--|---------------------------|--------------------------|
-----------5/-3--3/-5-----|---------------------------|-----------------------3--|
--6/-5--5-----------------|--5/-3--3--5-----3/5/3--0--|--5/-3--3--5----3/5/3-----|


                                                                           
--------------------------|----------------------|-------------------------|
--3/-2--------------------|----------------------|-------------------------|
--------3-----------3-----|----------------------|-------------------------|
-----------5/-3--3-----0--|--1/-------133/-------|--3--1--1/-6----0--3--1--|


                                                                              
-------------------------|--------------------------|-------------------------|
-------------------------|--------------------------|-------------------------|
-------------------------|--------------------------|-------------------------|
--3--1--1/-6----0--3--1--|--3--1--1/-6-----0--3--1--|--3--1--1/-6----0--3--1--|


                                                                              
-------------------------|--------------------------|-------------------------|
-------------------------|--------------------------|-------------------------|
-------------------------|--------------------------|-------------------------|
--3--1--1/-6----0--3--1--|--3--1--1/-6-----0--3--1--|--3--1--1/-6----0--3--1--|


                                                                               
------------------------|---------------------------|--------------------------|
------------------------|---------------------------|--------------------------|
-----------5------------|---------------------------|--------------------------|
--3/-1--1/------6/---1--|--5/-3--3--5-----3/5/3--0--|--5/-3--3--5----3/5/3--0--|


                                                                                
-------------------------|---------------------------|--------------------------|
-------------------------|------------------------3--|--------------------------|
-------------------------|-----------5/--3--3/-5-----|--------------------------|
--6h-5--5--6----6--5--1/-|--6/-5--5------------------|--5/-3--3--5----3/5/3--0--|


                                                                            
--------------------------|---------------------------|---------------------|
--------------------------|--3/-2---------------------|---------------------|
-----------------------3--|--------3------------3-----|---------------------|
--5/-3--3--5----3/5/3-----|-----------5//-3--3-----0--|--1/-------13/-------|


                                                               
-------------------------------|-------------------------------|
-------------------------------|-------------------------------|
-------------------------------|---------------------8--7-8-7--|
--1-1-1-1-1--0-1--1-1-1-1-1-0--|--1-1-1--1-1--0-1--1/----------|


                                                              
-------------------------------|------------------------------|
-------------------------------|------------------------------|
-------------------------------|--------------7-7--7-7--5-----|
--5-5-5-5-5--3-5--5-5-5-5-5-3--|--5-5-5--5-5--------------8---|


                                                              
-------------------------------|------------------------------|
-------------------------------|------------------------------|
--5-5-5-5-5--3-5--5-5-5-5-5-3--|--5-5-5--5-5--3-5--5-7--8-----|
-------------------------------|---------------------------5--|


                                                               
-------------------------------|-------------------------------|
-------------------------------|-------------------------------|
-------------------------------|--------------8-8--7h8-8-5--3--|
--6-6-6-6-6--5-6--6-6-6-6-6-5--|--6-6-6--6-6-------------------|


                                                               
-------------------------------|-------------------------------|
-------------------------------|-------------------------------|
-------------------------------|---------------------8--7-8-7--|
--1-1-1-1-1--0-1--1-1-1-1-1-0--|--1-1-1--1-1--0-1--1/----------|


                                                             
-------------------------------|-----------------------------|
-------------------------------|--------------7--------------|
-------------------------------|----------------7---5--3/-4--|
--5-5-5-5-5--3-5--5-5-5-5-5-3--|--5-5-5--5-5-----------------|


                                                              
------------------------------|-------------------------------|
------------------------------|----------------------------7--|
--5-5--5-5--3-5--5-5-5-5-5-3--|--5-5-5-55-5--3-5--5-7--8-8----|
------------------------------|-------------------------------|


                                                              
-------------------------------|------------------------------|
-------------------------------|------------------------5/-2--|
-------------------------------|--------------5-5--3h5--------|
--6-6-6-6-6--5-6--6-6-6-6-6-5--|--6-6-6--6-6------------------|


                                                                
-------------------------------|--------------------------------|
-------------------------------|--------------------------------|
-------------------------------|--------------------------------|
--1-1-1-1-1--0-1--1-1-1-1-1-0--|--1-1-1--1-1--0-1--1-1-1-1-1-0--|


                                                                            
-------------------------------|--------------------|-----------------------|
-------------------------------|--------------------|-----------------------|
-------------------------------|--------------------|-----------------------|
--1-1-1-1-1--0-1--1-1-1-1-1-0--|--1-----------------|------3/-1--1/-6/---1--|


                                                                              
-------------------------|--------------------------|-------------------------|
-------------------------|--------------------------|-------------------------|
-------------------------|--------------------------|-------------------------|
--3/-1--1/-6/---0--3--1--|--3/-1--1/-6/----0--3--1--|--3/-1--1/-6/---0--3--1--|


                                                                              
-------------------------|--------------------------|-------------------------|
-------------------------|--------------------------|-------------------------|
-------------------------|--------------------------|-------------------------|
--3/-1--1/-6/---0--3--1--|--3/-1--1/-6/----0--3--1--|--3/-1--1/-6/---0--3--1--|


                                                                       
------------------------|------------------------|---------------------|
------------------------|------------------------|---------------------|
-----------5------------|------------------------|------------5--------|
--3/-1--1-------6----5--|--3/-1--1/-6/----0------|---------------6--5--|


                                                                          
-----------------------|------------------------|-------------------------|
-----------------------|------------------------|-------------------------|
-----------------------|--------5---------------|-------------------------|
--3/-1--1/-6/---0------|-----------6--5---3--1--|--3/-1--1/-6/---0--3--1--|


                                                                               
-------------------------|--------------------------|--------------------------|
-------------------------|--------------------------|--------------------------|
-------------------------|--------------------------|-----------5/-3-----------|
--3/-1--1/-6/---0--3--1--|--3/-1--1/-6/----0--3--1--|--3/-1--1--------6--5--1--|


                                                                              
-------------------------|--------------------------|-------------------------|
-------------------------|--------------------------|-------------------------|
-------------------------|--------------------------|-------------------------|
--3/-1--1/-6/---0--3--1--|--3/-1--1/-6/----0--3--1--|--3/-1--1/-6/---0--3--1--|


                                                                             
------------------------|--------------------------|-------------------------|
------------------------|--------------------------|-------------------------|
-----------5/-----------|--------------------------|-------------------------|
--3/-1--1-------6/---1--|--3/-1--1/-6/----0--3--1--|--3/-1--1/-6/---0--3--1--|


                                                                              
-------------------------|-------------------------|--------------------------|
-------------------------|-------------------------|--------------------------|
-------------------------|-----------5/------------|--------------------------|
--3/-1--1/-6/---0--3--1--|--3/-1--1--------6/---1--|--5/-3--3--5----3/5/3--0--|


                                                                                
--------------------------|--------------------------|--------------------------|
--------------------------|--------------------------|-----------------------3--|
--------------------------|--------------------------|-----------5/-3--3/-5-----|
--5/-3--3--5----3/5/3--0--|--6h-5--5--6-----6--5--1/-|--6/-5--5-----------------|


                                                                                 
--------------------------|---------------------------|--------------------------|
--------------------------|---------------------------|--3/-2--------------------|
--------------------------|------------------------3--|--------3-----------3-----|
--5/-3--3--5----3/5/3--0--|--5/-3--3--5-----3/5/3-----|-----------5/-3--3-----0--|


                                                                                     
---------------------|--------------------------------|------------------------------|
---------------------|--------------------------------|------------------------------|
---------------------|--------------------------------|--------------------8--7-8-7--|
--1/-------13/-------|--1-1-1-1-1--0-1---1-1-1-1-1-0--|--1-1-1-1-1--0-1--1/----------|


                                                              
-------------------------------|------------------------------|
-------------------------------|------------------------------|
-------------------------------|--------------7-7--7-7--5-----|
--5-5-5-5-5--3-5--5-5-5-5-5-3--|--5-5-5--5-5--------------8---|


                                                              
-------------------------------|------------------------------|
-------------------------------|------------------------------|
--5-5-5-5-5--3-5--5-5-5-5-5-3--|--5-5-5--5-5--3-5--5-7--8-----|
-------------------------------|---------------------------5--|


                                                               
-------------------------------|-------------------------------|
-------------------------------|-------------------------------|
-------------------------------|--------------8-8--7h8-8-5--3--|
--6-6-6-6-6--5-6--6-6-6-6-6-5--|--6-6-6--6-6-------------------|


                                                               
-------------------------------|-------------------------------|
-------------------------------|-------------------------------|
-------------------------------|---------------------8--7-8-7--|
--1-1-1-1-1--0-1--1-1-1-1-1-0--|--1-1-1--1-1--0-1--1/----------|


                                                             
-------------------------------|-----------------------------|
-------------------------------|--------------7--------------|
-------------------------------|----------------7---5--3/-4--|
--5-5-5-5-5--3-5--5-5-5-5-5-3--|--5-5-5--5-5-----------------|


                                                              
------------------------------|-------------------------------|
------------------------------|----------------------------7--|
--5-5--5-5--3-5--5-5-5-5-5-3--|--5-5-5-55-5--3-5--5-7--8-8----|
------------------------------|-------------------------------|


                                                             
-------------------------------|-----------------------------|
-------------------------------|---------------8-------------|
-------------------------------|----5-----8---------8--5/-3--|
--6-6-6-6-6--5-6--6-6-6-6-6-5--|--6----66----6----6----------|


                                                               
-------------------------------|-------------------------------|
-------------------------------|-------------------------------|
-------------------------------|---------------------8--7-8-7--|
--1-1-1-1-1--0-1--1-1-1-1-1-0--|--1-1-1--1-1--0-1--1/----------|


                                                               
-------------------------------|-------------------------------|
-------------------------------|-------------------------------|
-------------------------------|--------------7-7--7-7-7-5-----|
--5-5-5-5-5--3-5--5-5-5-5-5-3--|--5-5-5--5-5---------------8---|


                                                              
-------------------------------|------------------------------|
-------------------------------|------------------------------|
--5-5-5-5-5--3-5--5-5-5-5-5-3--|--5-5-5--5-5--3-5--5-7--8-----|
-------------------------------|---------------------------5--|


                                                               
-------------------------------|-------------------------------|
-------------------------------|-------------------------------|
-------------------------------|--------------8-8--7h8-8-5--3--|
--6-6-6-6-6--5-6--6-6-6-6-6-5--|--6-6-6--6-6-------------------|


                                                               
-------------------------------|-------------------------------|
-------------------------------|-------------------------------|
-------------------------------|---------------------8--7-8-7--|
--1-1-1-1-1--0-1--1-1-1-1-1-0--|--1-1-1--1-1--0-1--1/----------|


                                                             
-------------------------------|-----------------------------|
-------------------------------|--------------7--------------|
-------------------------------|----------------7---5--3/-4--|
--5-5-5-5-5--3-5--5-5-5-5-5-3--|--5-5-5--5-5-----------------|


                                                               
-------------------------------|-------------------------------|
-------------------------------|----------------------------7--|
--5-5-5-5-5--3-5--5-5-5-5-5-3--|--5-5-5--5-5--3-5--5-7--8-8----|
-------------------------------|-------------------------------|


                                                              
-------------------------------|------------------------------|
-------------------------------|------------------------5--2--|
-------------------------------|--------------5-5--3/5--------|
--6-6-6-6-6--5-6--6-6-6-6-6-5--|--6-6-6--6-6------------------|


                                                               
-------------------------------|-------------------------------|
-------------------------------|-------------------------------|
-------------------------------|---------------------8--7-8-7--|
--1-1-1-1-1--0-1--1-1-1-1-1-0--|--1-1-1--1-1--0-1--1/----------|


                                                              
-------------------------------|------------------------------|
-------------------------------|------------------------------|
-------------------------------|--------------7-7--7-7--5-----|
--5-5-5-5-5--3-5--5-5-5-5-5-3--|--5-5-5--5-5--------------8---|


                                                              
-------------------------------|------------------------------|
-------------------------------|------------------------------|
--5-5-5-5-5--3-5--5-5-5-5-5-3--|--5-5-5--5-5--3-5--5-7--8-----|
-------------------------------|---------------------------5--|


                                                             
-------------------------------|-----------------------------|
-------------------------------|---------------8-------------|
-------------------------------|----5-----8---------8--5/-3--|
--6-6-6-6-6--5-6--6-6-6-6-6-5--|--6----66----6----6----------|


                                                                
-------------------------------|--------------------------------|
-------------------------------|--------------------------------|
-------------------------------|--------------------------------|
--1-1-1-1-1--0-1--1-1-1-1-1-0--|--1-1-1--1-1--0-1--1-1-1-1-1-0--|


                                                                              
-------------------------------|--------------------|----|----|----|----|----||
-------------------------------|--------------------|----|----|----|----|----||
-------------------------------|--------------------|----|----|----|----|----||
--1-1-1-1-1--0-1--1-1-1-1-1-0--|--1-----------------|----|----|----|----|----||


Добавлено: 18.05.2012
Другие материалы по этой песне:

Страница создана 24.04.2012
http://primanota.ru/dir-en-grey/embryo-chords.htm
Привет, Гость.
Предлагаем пройти революционный курс по гитаре.
Подарок от PrimaNota.Ru, забирай!