PrimaNota.ru - самый крупный в мире бесплатный архив песенных текстов, аккордов, табулатур и нот


Die Arzte - Der Ritt Auf Dem Schmetterling - таба, видео

Регистрация Запомнить меня
Войти через:  Facebook Google Twitter Vk Yandex Mail.ru

Die Arzte - Der Ritt Auf Dem Schmetterling - таба, видео

Печатать
Просмотров: 194
Уроки эстрадного вокала в Санкт-Петербурге
Der Ritt auf dem Schmetterling
A                        G                        F
E :------------------------|------------3-----------|------------1-----------|
B :------------5-----------|--------3-------3-------|--------1--------1------|
G :----------------5-------|----4-------------------|----2----------------2--|
D :--------------------7---|------------------------|------------------------|
A :7-------------------7---|5-------------------5---|3-----------------------|
E :5-------------------5---|3-------------------3---|1-----------------------|

F                                a
E :1-------------------------------|------------------------|
B :1---1-1-1-1-1h3p1-p0h1p0--------|------------5-----------|
G :2------------------------p0h2p0-|----------------5-------|
D :3-------------------------------|--------------------7---|
A :3-------------------------------|7-------------------7---|
E :1-------------------------------|5-------------------5---|

G                        F
E :------------------------|------------1-----------|
B :----3-3-3-3-3---1-0-----|--------1-------1-------|
G :--------------------2-0-|----2---------------2---|
D :------------------------|------------------------|
A :5-----------------------|3-----------------------|
E :3-----------------------|1-----------------------|


E :8-------------13-------------|
B :----10-------------13--------|
G :---------10-------------14---|
D :-----------------------------|
A :-----------------------------|
E :-----------------------------|

A
E :----------------
B :----------------
G :----------------
D :7---------------
A :7---------------
E :5---------------
Wir haben...
Добавлено: 20.06.2012
Другие материалы по этой песне:
  • Аккорды и текст

Страница создана 20.06.2012
http://primanota.ru/die-arzte/der-ritt-auf-dem-schmetterling-chords.htm
Привет, Гость.
Предлагаем пройти революционный курс по гитаре.
Подарок от PrimaNota.Ru, забирай!