PrimaNota.ru - самый крупный в мире бесплатный архив песенных текстов, аккордов, табулатур и нот


Die Arzte - Buddy Holly's Brille - аккорды и текст, таба, видео

Регистрация Запомнить меня
Войти через:  Facebook Google Twitter Vk Yandex Mail.ru

Die Arzte - Buddy Holly's Brille - аккорды и текст, таба, видео

Печатать
Просмотров: 116
Авторы музыки: Farin Urlaub
Авторы текста: Farin Urlaub
Buddy Holly's Brille
Die Arzte
Buddy Holly's Brille
====================
(M/T: Urlaub)


Akkorde:
   A   D   E   F#  A7  A6
1:-0-|-2-|-0-|-2-|-3-|-2-|
2:-2-|-3-|-0-|-2-|-2-|-2-|
3:-2-|-2-|-1-|-2-|-2-|-2-|
4:-2-|-0-|-2-|-4-|-2-|-2-|
5:-0-|---|-2-|-4-|-0-|-0-|
6:---|---|-0-|-2-|---|---|



Intro:
          A       D        E                A       D        E         
1:-----------0-----|2-----0---------|----------0-----|2-----0---------|
2:-------------2-3-|--3-----0----3--|3-2-0-------2-3-|--3-----0---3---|
3:-----------------|----2-----------|--------2-------|----2-----------|
4:-----------------|----------2-----|----------------|----------2-----|
5:-------0---------|----------------|----------------|----------------|
6:-0-2-4-----------|----------------|----------------|----------------|

            A               F#
1:-------|----0----------|-----2---2----|
2:-3-2-0-|----2--3--2--0-|-----2-2-2-2--|
3:-------|--2-2--------2-|-----2-2-2-2--|
4:-------|--2------------|--4--4-4---4--|
5:-------|--0------------|--4--4--------|
6:-------|---------------|--2--2--------|
         Er...            ..auch braune..


1.Strophe:
   A                      F#
Er hatte braune Augen und auch braune Haare,
   A                     F#
Er hatte eine Brille und eine Gitarre.
    A                      F#
Auf der Gitarre spielte er bis zur Extase,
        A                    F#                    A    D  A  A7-A6-A
Und die Brille trug er immer auf seiner Nase. Wo-u-hou.


Refrain:
   D    Dsus4  D   F#            E
Er sang wie ein Engel und war 
Добавлено: 17.01.2014
Другие материалы по этой песне:
  • Аккорды и текст

Страница создана 10.04.2012
http://primanota.ru/die-arzte/buddy-hollys-brille-chords.htm
Привет, Гость.
Предлагаем пройти революционный курс по гитаре.
Подарок от PrimaNota.Ru, забирай!