PrimaNota.ru - самый крупный в мире бесплатный архив песенных текстов, аккордов, табулатур и нот


Die Arzte - Elke - текст песни, таба, видео

Регистрация Запомнить меня
Войти через:  Facebook Google Twitter Vk Yandex Mail.ru

Die Arzte - Elke - текст песни, таба, видео

Печатать
Просмотров: 264
ELKE

E :--------0-------|------0---------|--------0-------|------0---------|
B :----------3---3-|----------3-----|----------3---3-|----------3-----|
G :----0-------0---|--0---------0---|----0-------0---|--0---------0---|
D :------4---------|----4-----------|------2---------|----2-----------|
A :5---------------|5-------------5-|3---------------|3-------------3-|
E :----------------|----------------|----------------|----------------|

E :--------0-------|------0---------|--------0-------|
B :----------3---3-|----------3-----|----------3---3-|
G :----0-------0---|--0---------0---|----0-------0---|
D :------0---------|----0-----------|------4---------|
A :----------------|----------------|5---------------|
E :3---------------|3---------------|----------------|

E :------0-----------------|
B :------------------------|
G :--0---------------------|
D :----4-------------------|
A :5-------0-h2-p0-0-h3-p0-|
E :------------------------|   (Intro geht in дhnlicher Manier weiter)

D9
Es fing an als sie mich anrief,
C9
Da war ich gleich verlor'n
G4
Ihre Stimme klang zu zдrtlich
D9
Und so sanft in meinen Ohr'n.

D9
Sie schickte mir ein Foto
C9
Mein Herz blieb beinahe steh'n.
G4
Sie sah aus wie eine Pizza
A
Sie war wunder-wunderschцn.

D9
Ich schrieb mir einen Liebesbrief
C9
Mit Rosenduft sogar!
E
Und zwei Wochen spдter
G
Waren wir ein Liebespaar...

[jetzt: d-Saite (hammer/pull):]

D:-0---3-0-5-0-3-0-5-0-3-0-5-0-3-0--- -> C -> G  (Brat-Akkorde)

D            C G
Elke.
D        C G
Die fette Elke.


D(9)
Wir haben uns getroffen,
B
Allein bei ihr zuhaus.
G
Sie sah noch viel viel dicker
C
Als auf dem Foto aus.
D(9)
Ich schloЯ sie in die Arme,
B
Das heiЯt - ich hab's versucht.
G
Ich stьrzte in ihr Fettgewebe
C
Wie in eine Schlucht.
D(9)
Sie ist ein echter Brocken,
B
Drei Meter im Kubik.
G                             A
Sie sieht so aus wie Putenmus mit Gurke
In Aspik...

Elke.....


Ich war mit Elke essen,
Ganz schick mit Kerzenschein.
Ich aЯ ein biЯchen Tofu,
Sie aЯ ein ganzes Schwein.

Elke ist so niedlich,
Elke ist mein Schwarm.
Im Sommer wirft sie Schatten,
Im Winter hдlt sie warm.

Sie hat zentnerschwere Schenkel,
Sie ist unendlich fett.
Neulich hab' ich sie bestiegen.
Добавлено: 03.06.2012
Другие материалы по этой песне:

Страница создана 25.02.2012
http://primanota.ru/die-arzte/elke-chords.htm
Привет, Гость.
Предлагаем пройти революционный курс по гитаре.
Подарок от PrimaNota.Ru, забирай!