PrimaNota.ru - самый крупный в мире бесплатный архив песенных текстов, аккордов, табулатур и нот


Die Arzte - Gwendoline - таба, видео

Регистрация Запомнить меня
Войти через:  Facebook Google Twitter Vk Yandex Mail.ru

Die Arzte - Gwendoline - таба, видео

Печатать
Просмотров: 183
Уроки эстрадного вокала в Санкт-Петербурге
E                   G                      A
E :--12---12---12-|10---10---10-10-10-10-|---9----9----9---|
B :--12---12---12-|12---12---12-12-12-12-|--10---10--10----|
G :--12---12---12-|12---12---12-12-12-12-|---9----9---9----|
D :---------------|----------------------|-----------------|
A :---------------|----------------------|-----------------|
E :---------------|----------------------|-----------------|

C       H        e                G                A
E :8---8---7---7-7-|--7---7---7-----|7---7---7-8-8-7-|--7---7---5---5-|
B :8---8---7---7-7-|--8---8---8-----|8---8---8-8-8-8-|--5---5---5---5-|
G :9---9---8---8-8-|--9---9---9-----|7---7---7-7-7-7-|--6---6---6---6-|
D :----------------|----------------|----------------|----------------|
A :----------------|----------------|----------------|----------------|
E :----------------|----------------|----------------|----------------|

C       H        e                   G
E :8---8---7---7-7-|---0---0--0---0--0-|--0--0---0--0---0-|
B :8---8---7---7-7-|--/5---5-/5---5-/5-|--5-/5---5-/5---5-|
G :9---9---8---8-8-|-------------------|------------------|
D :----------------|-------------------|------------------|
A :----------------|-------------------|------------------|
E :----------------|-------------------|------------------|

A                    C     H        e
E :-0---0--0---0---0-|--3---3-7-------|---0---0--0---0--0-|
B :/5---5-/5---5---5-|----5-----------|--/5---5-/5---5-/5-|
G :------------------|----------------|-------------------|
D :------------------|----------------|-------------------|
A :------------------|----------------|-------------------|
E :------------------|----------------|-------------------|

G                 A                  C      H
E :--0--0---0---0---|12-0-10-0-8-0-7-0-|8-10-8-7---------|
B :--5-/5---5---5---|------------------|-----------------|
G :-----------------|------------------|-----------------|
D :-----------------|------------------|-----------------|
A :-----------------|------------------|-----------------|
E :-----------------|------------------|-----------------|

E                      A
In einer kleinen Hьtte, da wohnt sweet Gwendoline
E                           C               H
Ich klopfte an die Tьr, und sie lieЯ mich herein.
C        D          G      e                 C
Sie hatte ein Kabel. Damit schnьrte sie mich ein.
D                 e    D   C
Sweet sweet Gwendoline.
D                 e           G-F# / C-H
Sweet sweet Gwendoline

E                         A
Ich lag allein im Dunkeln, ich wuЯte nicht warum
E                           C         H
Die Fesseln taten weh, doch ich blieb stumm
C      D          G    e                C
Ich war geknebelt, ich konnte nich' mal schrei'n
D                 e     D     C
Sweet sweet Gwendoline, oh oh oh
D                 e(XII)  - G(X) - A(IX) - C(VIII)/H(VII)    (= Intro)
Sweet sweet Gwendoline

E             G                   A               C    H
Doch endlich bindet sie mich los, jetzt wird sie selber eingeschnьrt
E               G            A                    H
Ich fess'le und ich kneb'le sie, damit sie sich nicht rьhrt
E                G             A            H
Man kцnnte sie jetzt wunderbar als Postpaket verschicken.
E               G        A
Man kцnnte sie auch ideal in dieser Stellung ----

[hier die Begleitung zum Solo:]

G - D - e - e

G - D - H/C/H/C/H-H/A/G/F#    [a+d-Saite 9/10/9/10/9-9, e+a-Saite 12/10/9/7]

E - A - C/H

E - A - H

E ---
E                                  A
Добавлено: 04.06.2012
Другие материалы по этой песне:
  • Аккорды и текст

Страница создана 04.06.2012
http://primanota.ru/die-arzte/gwendoline-chords.htm
Привет, Гость.
Предлагаем пройти революционный курс по гитаре.
Подарок от PrimaNota.Ru, забирай!