PrimaNota.ru - самый крупный в мире бесплатный архив песенных текстов, аккордов, табулатур и нот


Devildriver - Grinfucked - таба, видео

Регистрация Запомнить меня
Войти через:  Facebook Google Twitter Vk Yandex Mail.ru

Devildriver - Grinfucked - таба, видео

Печатать
Просмотров: 131
                                 Devildriver
                                 Grinfucked
                                 The Fury of our makers hand

Any questions? Email me at gamerocker442@gmail.com

Tuning: Drop B
               B-Fb-B-E-Gb-Cb

0:14
|---------------------------------------------------------------------|
|---------------------------------------------------------------------|
|---------------------------------------------------------------------|
|-0-0-0-0-0-0-0-0-0-0-0-0-0-0-0-0-----------------0-0-0-0-0-0-0-0-0-0-|
|---------------------------------4-4-4-4-1-1-1-1---------------------|
|---------------------------------------------------------------------|

                                 x2
|------------------------------|
|-----------------------------o|
|------------------------------|
|-0-0-0-0-0-0-2-2-2-2-3-3-3-3--|
|-----------------------------o|
|------------------------------|


0:28
|-----------------------------------------|
|-----------------------------------------|
|-----------------------------------------|
|-----------------------------------------|
|-4-4-4-4-5-------5-5-5-5-4-------4-4-4-4-|
|-----------0-2-3-----------0-2-3---------|


                             x4
|--------------------------|
|--------------------------|
|--------------------------|
|--------------------------|
|-1-------1-1-1-1-0--------|
|---0-2-3-----------0-2-3--|


0:58                                                   x2
|----------------------------------------------------|
|----------------------------------------------------|
|----------------------------------------------------|
|----------------------------------------------------|
|--5-----------4-----------1-------------0-----------|
|-----0--2--3-----0--2--3-----0--2---3------0--2--3--|

1:12
|---------------------------------------------------------------------|
|---------------------------------------------------------------------|
|---------------------------------------------------------------------|
|-0-0-0-0-0-0-0-0-0-0-0-0-0-0-0-0-----------------0-0-0-0-0-0-0-0-0-0-|
|---------------------------------4-4-4-4-1-1-1-1---------------------|
|---------------------------------------------------------------------|

                                 x2
|------------------------------|
|-----------------------------o|
|------------------------------|
|-0-0-0-0-0-0-2-2-2-2-3-3-3-3--|
|-----------------------------o|
|------------------------------|


1:27
|-----------------------------------------|
|-----------------------------------------|
|-----------------------------------------|
|-----------------------------------------|
|-4-4-4-4-5-------5-5-5-5-4-------4-4-4-4-|
|-----------0-2-3-----------0-2-3---------|


                             x4
|--------------------------|
|--------------------------|
|--------------------------|
|--------------------------|
|-1-------1-1-1-1-0--------|
|---0-2-3-----------0-2-3--|

1:48                                                   x2
|----------------------------------------------------|
|----------------------------------------------------|
|----------------------------------------------------|
|----------------------------------------------------|
|--5-----------4-----------1-------------0-----------|
|-----0--2--3-----0--2--3-----0--2---3------0--2--3--|

2:03
|---------------------------------------------------------------------|
|---------------------------------------------------------------------|
|---------------------------------------------------------------------|
|-0-0-0-0-0-0-0-0-0-0-0-0-0-0-0-0-----------------0-0-0-0-0-0-0-0-0-0-|
|---------------------------------4-4-4-4-1-1-1-1---------------------|
|---------------------------------------------------------------------|

                                 x3
|------------------------------|
|-----------------------------o|
|------------------------------|
|-0-0-0-0-0-0-2-2-2-2-3-3-3-3--|
|-----------------------------o|
|------------------------------|

2:24                                                      x2
|-------------------|---------------------|-------------|
|-------------------|---------------------|-------------|
|-------------------|---------------------|-------------|
|---------5b7-------|---5b7---------4b6---|-------4b6---|
|-------------------|---------------------|-------------|
|-5-5-5-5-----5-5-5-|-5-----4-4-4-4-----4-|-4-4-4-------|


2:38                          x4
|----------------------------|
|----------------------------|
|----------------------------|
|-------------4--------------|
|-----3-5-6-5---6-5-3-5-6----|
|-5-6------------------------|

2:53-2:59 Bass Solo

3:00
|---------------------------------------------------------------------|
|---------------------------------------------------------------------|
|---------------------------------------------------------------------|
|-0-0-0-0-0-0-0-0-0-0-0-0-0-0-0-0-----------------0-0-0-0-0-0-0-0-0-0-|
|---------------------------------4-4-4-4-1-1-1-1---------------------|
|---------------------------------------------------------------------|

                                 x4
|------------------------------|
|-----------------------------o|
|------------------------------|
|-0-0-0-0-0-0-2-2-2-2-3-3-3-3--|
|-----------------------------o|
|------------------------------|


Thats the whole song.  Listening to the song, and following along you should get it 
 Not a terribly difficult song.  Have fun!
Добавлено: 02.06.2012
Другие материалы по этой песне:

Страница создана 06.05.2012
http://primanota.ru/devildriver/grinfucked-chords.htm
Привет, Гость.
Предлагаем пройти революционный курс по гитаре.
Подарок от PrimaNota.Ru, забирай!