PrimaNota.ru - самый крупный в мире бесплатный архив песенных текстов, аккордов, табулатур и нот


Dethklok - Duncan hills coffe jingle - таба, видео

Регистрация Запомнить меня
Войти через:  Facebook Google Twitter Vk Yandex Mail.ru

Dethklok - Duncan hills coffe jingle - таба, видео

Печатать
Просмотров: 585


Artist: Dethklok
Song: Duncan Hills Coffee


-------------------------------------------------------------------------------
		     Duncan Hills Coffee Jingle - Dethklok
-------------------------------------------------------------------------------
Tabbed by: metallicax6
Email: rymo4u@comcast.net

Tuning: Drop D
 Gtr.1(Skwisgaar)- Heavy Dist.
 Gtr.2(Toki)- Heavy Dist.
 Gtrs.3(Rhythm)- Heavy Dist.

Everything is perfect. The solo may have a little iffy parts,
but that's all I could get out of it after listening to it
over and over and over again.
There you go Dethklok fans. Enjoy 


 Gtrs.1 amp; 2                                                   ~~~~~~~~
e||----------------------------------|---------------------------------||
B||o---------------------------------|--------------------------------o||
G||----------------------------------|---------------------------------||
D||--0-------0-------6---------------|0-------0------------------------||
A||o-0-------0-------6---------------|0-------0-----------------------o||
D||--0-------0-------6---------------|0-------0-------3-b(5)-r3--------||


 P.M.--------|                    P.M.--------|           ~~~~~~~~
|--------------------------------|--------------------------------|
|--------------------------------|--------------------------------|
|--------------------------------|--------------------------------|
|----------------6---------------|--------------------------------|
|----------------6---------------|--------------------------------|
|0---0---0---0---6---------------|0---0---0---0---3-b(5)-r3-------|


 P.M.--------|                    P.M.--------|
|--------------------------------|--------------------------------|
|--------------------------------|--------------------------------|
|--------------------------------|--------------------------------|
|----------------6---------------|--------------------------------|
|----------------6---------------|--------------------------------|
|0---0---0---0---6---------------|0---0---0---0---3--b(5)---------|


Verse Riff                                                                  x4
||-----------------------------------|----------------------------------||
||o----------------------------------|---------------------------------o||
||-----------------------------------|----------------------------------||
||-----------------------------------|----------------------------------||
||o---------5-6-5-------5-6-5--------|--------5-6-5-------5-6-5--*3b(4)o||
||--0-6-7-6-------7-6-7-------0-3b(5)|0-6-7-6-------7-6-7-------0-------||
                                                      *Slight pinch harm.

                                                              ~~~~~~~~ x4
e||----------------------------------|---------------------------------||
B||o---------------------------------|--------------------------------o||
G||----------------------------------|---------------------------------||
D||--0-------0-------6---------------|0-------0------------------------||
A||o-0-------0-------6---------------|0-------0-----------------------o||
D||--0-------0-------6---------------|0-------0-------3-b(5)-r3--------||



Guitar Solo

 Gtr.1
 |-----6-----|
|17p13------13-17---15-17-18---17---15----------|
|-----15--15---------------------------18-17----|
|-------14--------------------------------------|
|-----------------------------------------------|
|-----------------------------------------------|
|-----------------------------------------------|
|
|Gtr.3
|-----------------------------------------------|
|-----------------------------------------------|
|-----------------------------------------------|
|7--7--7--7--7--7--7--7--7--7--7--7--7--7-------|
|5--5--5--5--5--5--5--5--5--5--5--5--5--5--7b(8)|
|-----------------------------------------------|


 Gtr.1
 |-----6-----||---5----|
|12h15p12-------------12-15---------------------|
|--------13---------13--------------------------|
|----------12-----12----------------------------|
|-----------14--14------------------------------|
|-------------15--------------------------------|
|-----------------------------------------------|
|
|Gtr.2                   |-3--|
|-----------------------------------------------|
|-----------------------------------------------|
|----------------------------1214----15----17---|
|--------------------------14-------------------|
|------------------------15---------------------|
|-----------------------------------------------|
|
|Gtr.3
|-----------------------------------------------|
|-----------------------------------------------|
|-----------------------------------------------|
|5--5--5--5--5--5--5--5--5--5--5--5--5--5--5--5-|
|3--3--3--3--3--3--3--3--3--3--3--3--3--3--3--3-|
|-----------------------------------------------|



|-----------------------------------------------|
|17b(18)--17-15----18----18b(20)--18-17---------|
|------------------------------------------17---|
|-----------------------------------------------|
|-----------------------------------------------|
|-----------------------------------------------|
|
|
|-----------------------------------------------|
|-----------------------------------------------|
|17b(19)--17-15----19----19b(21)--19-17---------|
|------------------------------------------17---|
|-----------------------------------------------|
|-----------------------------------------------|
|
|
|-----------------------------------------------|
|-----------------------------------------------|
|-----------------------------------------------|
|3--3--3--3--3--3--3--3--5--5--5--5--5--5--5--5-|
|1--1--1--1--1--1--1--1--3--3--3--3--3--3--3--3-|
|-----------------------------------------------|








 |----6-----||----6-----||----6-----|
|-----------------------------------------------|
|181715------181715-----------------------------|
|------171514------171514-----------------------|
|------------------------171514-----------------|
|------------------------------17151417---------|
|-----------------------------------------------|
|
|
|-----------------------------------------------|
|17-gb(18)--------------------------------------|
|-----------------------------------------------|
|-----------------------------------------------|
|-----------------------------------------------|
|-----------------------------------------------|
|
|
|-----------------------------------------------|
|-----------------------------------------------|
|-----------------------------------------------|
|7--7--7--7--7--7--7--7--7--7--7--7--7--7--7--7-|
|5--5--5--5--5--5--5--5--5--5--5--5--5--5--5--5-|
|-----------------------------------------------|


 |-----6-----|
|17p13------13-17---15-17-18---17---15----------|
|-----15--15---------------------------18-17----|
|-------14--------------------------------------|
|-----------------------------------------------|
|-----------------------------------------------|
|-----------------------------------------------|
|
||-----6-----|
|22p17------17-22---18-20-22---20---18-17-------|
|-----18--18------------------------------20----|
|-------19--------------------------------------|
|-----------------------------------------------|
|-----------------------------------------------|
|-----------------------------------------------|
|
|
|-----------------------------------------------|
|-----------------------------------------------|
|-----------------------------------------------|
|7--7--7--7--7--7--7--7--7--7--7--7--7--7-------|
|5--5--5--5--5--5--5--5--5--5--5--5--5--5--7b(8)|
|-----------------------------------------------|


 |-----6-----||---5----| ~~~~~~~~~~~~~~~~~
|12h15p12-------------12-15---------------------|
|--------13---------13--------------------------|
|----------12-----12----------------------------|
|-----------14--14------------------------------|
|-------------15--------------------------------|
|-----------------------------------------------|
|
||-----7------||---6---|
|-----------------------------------------------|
|20h22p20-------------20-22b(23)r--b--r--b--r---|
|-------21-----------21-------------------------|
|--------22---------22--------------------------|
|---------22p19-19h22---------------------------|
|--------------20-------------------------------|
|
|
|-----------------------------------------------|
|-----------------------------------------------|
|-----------------------------------------------|
|5--5--5--5--5--5--5--5--5--5--5--5--5--5--5--5-|
|3--3--3--3--3--3--3--3--3--3--3--3--3--3--3--3-|
|-----------------------------------------------|



|------------------------------------------15---|
|17b(18)--17-15----18----18b(20)--18-17---------|
|-----------------------------------------------|
|-----------------------------------------------|
|-----------------------------------------------|
|-----------------------------------------------|
|
|
|-----------------------------------------------|
|------------------------------------------17---|
|17b(19)--17-15----19----19b(21)--19-17---------|
|-----------------------------------------------|
|-----------------------------------------------|
|-----------------------------------------------|
|
|
|-----------------------------------------------|
|-----------------------------------------------|
|-----------------------------------------------|
|3--3--3--3--3--3--3--3--5--5--5--5--5--5--5--5-|
|1--1--1--1--1--1--1--1--3--3--3--3--3--3--3--3-|
|-----------------------------------------------|



|15b(17)--15-13----17----17b(19)--17-15----20---|
|-----------------------------------------------|
|-----------------------------------------------|
|-----------------------------------------------|
|-----------------------------------------------|
|-----------------------------------------------|
|
|
|-----------------------------------------------|
|17b(18)--17-15----18----18b(20)--18-17---------|
|-----------------------------------------------|
|-----------------------------------------------|
|-----------------------------------------------|
|-----------------------------------------------|
|
|
|-----------------------------------------------|
|-----------------------------------------------|
|-----------------------------------------------|
|-----------------------------------------------|
|3--3--3--3--3--3--3--3--5--5--5--5--5--5--5--5-|
|3--3--3--3--3--3--3--3--5--5--5--5--5--5--5--5-|



|20----18----17---------------------------------|
|------------------20----18----17---------------|
|------------------------------------19----18---|
|-----------------------------------------------|
|-----------------------------------------------|
|-----------------------------------------------|
|
|
|17----15---------------------------------------|
|------------18----17----15---------------------|
|------------------------------17----15----14---|
|-----------------------------------------------|
|-----------------------------------------------|
|-----------------------------------------------|
|
|
|-----------------------------------------------|
|-----------------------------------------------|
|-----------------------------------------------|
|3--3--3--3--3--3--3--3--5--5--5--5--5--5--5--5-|
|1--1--1--1--1--1--1--1--3--3--3--3--3--3--3--3-|
|-----------------------------------------------|


 ~~~~~~~~

|--------------------------------|--------------------------------|
|--------------------------------|--------------------------------|
|19------------------------------|--------------------------------|
|--------------------------------|--------------------------------|
|--------------------------------|--------------------------------|
|--------------------------------|--------------------------------|
|
|~~~~~~~~
|--------------------------------|--------------------------------|
|--------------------------------|--------------------------------|
|14------------------------------|--------------------------------|
|--------------------------------|--------------------------------|
|--------------------------------|--------------------------------|
|--------------------------------|--------------------------------|
|
|
|--------------------------------|--------------------------------|
|--------------------------------|--------------------------------|
|--------------------------------|--------------------------------|
|0-------0-------0-------0-------|0-------0-------0---------------|
|0-------0-------0-------0-------|0-------0-------0---------------|
|0-------0-------0-------0-------|0-------0-------0---------------|



| /   slide up
|    slide down
| h   hammer-on
| p   pull-off
| b   bend
| gb  gradual bend
| r   return from bend
| ~   vibrato
|   harmonic
| []  pinch (false) harm.
| x   mute note

Добавлено: 20.02.2014
Другие материалы по этой песне:
  • Аккорды и текст

Страница создана 20.02.2014
http://primanota.ru/dethklok/duncan-hills-coffe-jingle-chords.htm
Привет, Гость.
Предлагаем пройти революционный курс по гитаре.
Подарок от PrimaNota.Ru, забирай!