PrimaNota.ru - самый крупный в мире бесплатный архив песенных текстов, аккордов, табулатур и нот


Dethklok - Face Fisted - текст песни, таба, видео

Регистрация Запомнить меня
Войти через:  Facebook Google Twitter Vk Yandex Mail.ru

Dethklok - Face Fisted - текст песни, таба, видео

Печатать
Просмотров: 701


----------------------
----------------------
----------------------   x4
----------------------
-0-0-0-0-0--0-0-0-0-0-
----------------------


------------------------
------------------------
----------2b1---------3- x4
-3-5--3-5-----3-5--3-5--
------------------------
------------------------

------------------------------------------
------------------------------------------  x4
------------------------------------------
-7b5--7b5--9b8---7b5--7b5-3-4-3-2-1-2-1-0-
------------------------------------------
------------------------------------------

--------------------------
--------------------------
--------------------------  x4
-3-3-3-3-5--3-3-3-3-5-----
----------------------2-4-
--------------------------

----------------------
----------------------   x4
----------------------
-5-5-5-5-5--5-5-5-5-5-
----------------------
----------------------


------------------------------------------
------------------------------------------  x4
------------------------------------------
-7b5--7b5--9b8---7b5--7b5-3-4-3-2-1-2-1-0-
------------------------------------------
------------------------------------------

                                    ----
--------------------------------        |
--------------------------------        |
----------1---------2----------3        |
--5-5-5-5---5-5-5-5---5-5-5-5---        |
--------------------------------        |
--------------------------------            X4  WHOLE SECTION
-------------------------------
-------------------------------         |
---------4---------5---------6-         |
-5-5-5-5---5-5-5-5---5-5-5-5---         |
-------------------------------         |
                                    -----


-----------------------------------------------
-----------------------------------------------X8
-----------------------------------------------
-5-5-5-5-5---5-5-5-5-5---5-5-5-5-5---5-5-5-5-5-
-----------------------------------------------
-----------------------------------------------


------------------------
------------------------
----------2b1---------3- x4
-3-5--3-5-----3-5--3-5--
------------------------
------------------------


------------------------------------------
------------------------------------------  x4
------------------------------------------
-7b5--7b5--9b8---7b5--7b5-3-4-3-2-1-2-1-0-
------------------------------------------
------------------------------------------

--------------------------
--------------------------
--------------------------  x4
-3-3-3-3-5--3-3-3-3-5-----
----------------------2-4-
--------------------------


                                     ----
--------------------------------        |
--------------------------------        |
----------1---------2----------3        |
--5-5-5-5---5-5-5-5---5-5-5-5---        |
--------------------------------        |
--------------------------------            X4 WHOLE SECTION
-------------------------------
-------------------------------         |
---------4---------5---------6-         |
-5-5-5-5---5-5-5-5---5-5-5-5---         |
-------------------------------         |
                                    -----

------------------------------------
------------------------------------  X4
------------------------------------
---5-3-3-3-6-3-3-3-5-3-3-3-5-3-3-3-6
------------------------------------
------------------------------------


--------------------------------
--------------------------------   X4
--------------------------------
-3-5-5-5--3-5-5-5-5--3-5-5-5-3B1
--------------------------------
--------------------------------


---------------------------------------
---------------------------------------
---------------------------------------
-8~~~9~~~10~~~11~~~12~~~13~~~14~~~15~~~
---------------------------------------
---------------------------------------

--------------------------
--------------------------
--------------------------
-10B13~~~~~~~~~~~~~~~~~~~~
--------------------------
--------------------------


------------------------
------------------------  X4
------------------------
-5-5-5-5-5---5-5-5-5-5--
------------------------
------------------------

EASY       ROB  MR.TACO64@YAHOO.COM




Добавлено: 01.11.2013
Другие материалы по этой песне:

Страница создана 16.03.2012
http://primanota.ru/dethklok/face-fisted-chords.htm
Привет, Гость.
Предлагаем пройти революционный курс по гитаре.
Подарок от PrimaNota.Ru, забирай!