PrimaNota.ru - самый крупный в мире бесплатный архив песенных текстов, аккордов, табулатур и нот


Dethklok - Rejoin - таба, видео

Регистрация Запомнить меня
Войти через:  Facebook Google Twitter Vk Yandex Mail.ru

Dethklok - Rejoin - таба, видео

Печатать
Просмотров: 225
i believe that most of the riffs are correct as well as the solo for the most part. 
though i have to admit i am doubt full about some riffs. still i did a good job i think and 
i hope it helps if it even gets upload and it doesn't get deleated. ;)

. palmute
|---| palmute
" fast picking
* harmonic
h hammer on
b bend
~ vibrato

intro
|------------------------------------------------------------------|
|------------------------------------------------------------------|
|------------------------------------------------------------------|
|------------------------------------------------------------------|
|------------------------------------------------------------------|
|-000-000-000-000-000-000-000-000-000-000-000-000-000-000-000-000--|

 |---------------------PM-----------------------------------------|


|------------------------------------------------------------------|
|------------------------------------------------------------------|
|------------------------------------------------------------------|
|------------------------------------------------------------------|
|-----555-444---------555-444--------------------------------------|
|-222---------555-222---------555-000-555-444-000-000-555-444-000--|
  ... ... ... ... ... ... ... ... ... ... ... ... ... ... ... ...

Riff 1

|------------------------------------------------------|
|------------------------------------------------------|
|----9----7----9----7---7/9----9----7----9----7----7---|
|----7----5----7----5---5/7----7----5----7----5----9---|
|------------------------------------------------------|
|-0-0--0-0--0-0--0-0-0-0----0-0--0-0--0-0--0-0--0-0----|

 |---| |--| |--| |--||--|   |---||---||---||---||--|

Riff 2
|------------------------------|
|------------------------------|
|------------------------------|
|------------------------------|
|---------------------------5*-|
|-000-5-8-7-7-5-000-5-8-7-7----|
  ... . . . . . ... . . . .

Riff 3

|-------------------------------------|
|-------------------------------------|
|-------------------------------------|
|-------------------------------------|
|---3-2------3-2------3-2------3-2----|
|-0-----3--0-----3--0-----3--0-----3--|


Riff 4
|-------------------------------------------------------|
|-------------------------------------------------------|
|-------------------------------------------------------|
|-14------------14------------12------------12----------|
|-12--14--10-9--12--14--10-9--10--12--10-7--10-12-10--7-|
|-----12--8--7------12--8--7------10--8--9-----10--8--9-|

Riff 5
|-------------------------------------|
|-------------------------------------|
|-------------------------------------|
|-------------------------------------|
|-------------------------------------|
|-8"-7"-8"-7"-8"-7"-8"-7"-8"-7"-8"-5"-|

 |-----------------PM-----------------|

Riff 6
|----------------------------------------------------|
|----------------------------------------------------|
|----------------------------------------------------|
|----------------------------------------------------|
|----------------------------------------------------|
|-0-0-3*-0-3*-0-3*-0-3*-3*-0-0-3*-0-3*-0-3*-0-3*-3*--|

 |--------------------PM-----------------------------|

Riff 7
|------------------------------------------------------------------|
|------------------------------------------------------------------|
|------------------------------------------------------------------|
|------------------------------------------------------------------|
|---------5h8---------5h8---------5h8---------5h8---------7h10-----|
|-3/5-5-8-----3/5-5-8-----3/5-5-8-----3/5-5-8-----5/7-7-10-----5/7-|
      . .         . .         . .         . .         .  .

|------------------------------------------------------------------|
|------------------------------------------------------------------|
|------------------------------------------------------------------|
|------------------------------------------------------------------|
|-----7h10---------7h10------------10h13------------10h13----------|
|-7-10-----5/7-7-10-----7/10-10-13-------7/10-10-13-------7/10-----|
  .  .         .  .           . .              .  .

|-------------|
|-------------|
|-------------|
|-------------|
|-------10h13-|
|-10-13-------|
  .   .
solo

|--------------------------------------------------------------------|
|--------------------------------------------------------------------|
|-----------------------------------13-15-17-15-13-------------------|
|-17-19-21-19~-12-12~------------------------------16-14-12----------|
|---------------------15-14-12-14-15------------------------15-14-12-|
|--------------------------------------------------------------------|

|---------------------------------------------------------------|
|----------15-17-18-17-15---------------------------------------|
|-------------------------17-16-14---------16-17-19-17-16-14~---|
|-14-15-17-------------------------17-15-14---------------------|
|---------------------------------------------------------------|
|---------------------------------------------------------------|


|--------------------------|
|-17b(1/4)-12~-10-9-10-17~-|
|--------------------------|
|--------------------------|
|--------------------------|
|--------------------------|

outro

|-----------------------------------------------------------------|
|-----------------------------------------------------------------|
|-----------------------------------------------------------------|
|-----------------------------------------------------------------|
|---5-4-----5-4---------------------5-4-----5-4-------------------|
|-2-----5-2-----5-0-5-4-0-0-5-4-0-2-----5-2-----5-0-5-4-0-0-5-4-0-|
                  .     . .     .                 .     . .     .
Добавлено: 23.07.2013
Другие материалы по этой песне:
  • Аккорды и текст

Страница создана 23.07.2013
http://primanota.ru/dethklok/rejoin-chords.htm
Привет, Гость.
Предлагаем пройти революционный курс по гитаре.
Подарок от PrimaNota.Ru, забирай!