PrimaNota.ru - самый крупный в мире бесплатный архив песенных текстов, аккордов, табулатур и нот


Dethklok - Thunderhorse - текст песни, таба, драм-таба, видео

Регистрация Запомнить меня
Войти через:  Facebook Google Twitter Vk Yandex Mail.ru

Dethklok - Thunderhorse - текст песни, таба, драм-таба, видео

Печатать
Просмотров: 606
Уроки эстрадного вокала в Санкт-Петербурге



Thunderhorse Tab by Dethklok,


Thunderhorse
------------
By: Dethklok
Tabbed by: Luis Rosales

Tuning: Drop D


This is a pretty fast song at some points, so I spaced the notes out and made comments
make it a little easier. Good luck.


========================================================

Intro:
E|-----------------------------------------------------------------------|
B|---------------------------------------------------21--21--20--18--20--|
G|-13---12-13--15b17--15---13-15--17b18--17---15-17----------------------|
D|-----------------------------------------------------------------------|
A|-----------------------------------------------------------------------|
D|-----------------------------------------------------------------------|

Start:
(Spacing tells where 16th notes are)
--------------------------|
--------------------------|
--------------------------|
------------3-4-3---------|    X 4
------3-----------6-4--3--|
3--3-----3----------------|


Filler (All 16th notes):
----------------------------------------------------------------|
----------------------------------------------------------------|
----------------------------------------------------------------|
----------------------------------------------------------------|
----------------1-1-1-1-1-1-1-1-3-3-3-3-3-3-3-3-5-5-5-5-5-5-5-5-|
3-3-3-3-3-3-3-3-------------------------------------------------|


--------------------------|
--------------------------|
--------------------------|
------------3-4-3---------|
------3-----------6-4--3--|
3--3-----3----------------|

==================================================
PATTERN A:
----------
Play this section twice (notes are spaced so you can see where 16th notes are)

--------------------------|
--------------------------|
--------------------------|
------------3-4-3---------|
------3-----------6-4--3--|
3--3-----3----------------|


---------------------------|
---------------------------|
---------------------------|
---------------------------|
------3-----3-4-3-1--------|
3--3-----3----------4~~~~~-|
                                 (remember to play this section twice)

--------------------------|
--------------------------|
--------------------------|
--------------------------|
------3-----3-4-3-1-3--1--|
2--2-----2----------------|


---------------------------|
---------------------------|
---------------------------|
---------------------------|
------3-----3-4-3-1--------|
2--2-----2----------4~~~~~-|

=======================================================

All 16th notes for this next section:
-----------------------------------------------------------------------|
11-0-0-0-9-0-0-0-11-0-0-0-13-0-0-0-11-0-0-0-13-0-0-0-14-0-0-0-16-0-0-0-|
-----------------------------------------------------------------------|
-----------------------------------------------------------------------|
-----------------------------------------------------------------------|
-----------------------------------------------------------------------|

------------------------------------------------------------------------|
18-0-0-0-16-0-0-0-18-0-0-0-20-0-0-0-18-0-0-0-20-0-0-0-21-0-0-0-22-0-0-0-|
------------------------------------------------------------------------|
------------------------------------------------------------------------|
------------------------------------------------------------------------|
------------------------------------------------------------------------|

(continued)
------
22b24-
------|
------|
------|
------|


========================================================
PATTERN B:
----------

8th notes (play this twice)
-------------------------------------------------------|
-------------------------------------------------------|
----5---6----------------------------------------------|
3-3---3---------5---6-------5---6---5------5-6-----5-6-|      (play twice)
----------3---3---3---3-4-4---4---4---6--6-----7-7-----|
-------------------------------------------------------|

========================================================

8th notes (play four times)
---------------------------------|
---------------------------------|
---------------------------------|
---------------------------------|       (Play four times)
-------------------------1-1-3-4-|
3-3-5-6-5-5-6-8-6-6-8-10---------|

=========================================================

Play this twice (the hammer ons are 16th notes, and you can see where the other 16th notes are)
--------------------------------------------------------------------------|
--------------------------------------------------------------------------|
--------------------------------------------------------------------------|
--------------------------------------------------------------------------|
1h3-1h3-------------1h3 1h3-----3h4-3h4-----1h3-1h3-----------------------|
--------3-3-3-333-3---------3-3---------3-3---------2-2-2-222-2-2-222-2-2-|

(continued)
------|
------|
------|
------|
------|
222-2-

==========================================================

Play twice (all 8th notes)
-------------------------------------------------------------------|
-------------------------------------------------------------------|
-------------------------------------------------------------------|
-------------------------------------------------------------------|
5-0-7-0-8-0-5-0-4-0-5-0-7-0-4-0-7-0-8-0-10-0-7-0-8-0-10-0-12-0-8-0-|
-------------------------------------------------------------------|

===========================================================

Play this twice (the hammer ons are 16th notes, and you can see where the other
16th notes are)
--------------------------------------------------------------------------|
--------------------------------------------------------------------------|
--------------------------------------------------------------------------|
--------------------------------------------------------------------------|
5h6-5h6-3-3-3-333-3-5h6-5h6-3-3---------3-3-------------------------------|
--------------------------------3h5-3h5-----3h5-3h5-5-5-5-555-5-5-555-5-5-|

(continued)
------|
------|
------|
------|
------|
555-5-

============================================================

Play this section twice:

------------                ----------------|
------------                --3-------5-----|
------------                --1---3---3---5-|
3-333-3-3---   x 6  then    ------1-------3-|
------------                ----------------|
                            |Quarter  notes|

============================================================

Play pattern A

============================================================

Play four times (16th notes with a pause in between)
------------------------------------|
3-3-3-3-3---6-6-6-6-6---8-8-8-8-8---|
3-3-3-3-3---6-6-6-6-6---8-8-8-8-8---|
3-3-3-3-3---6-6-6-6-6---8-8-8-8-8---|
------------------------------------|

============================================================

Play pattern B 10 times (gradually fading out)

============================================================

Well that's Thunderhorse. Hope you like it.

Добавлено: 26.12.2013
Другие материалы по этой песне:

Страница создана 11.10.2013
http://primanota.ru/dethklok/thunderhorse-chords.htm
Привет, Гость.
Предлагаем пройти революционный курс по гитаре.
Подарок от PrimaNota.Ru, забирай!