PrimaNota.ru - самый крупный в мире бесплатный архив песенных текстов, аккордов, табулатур и нот


Dethklok - Kill You - текст песни, таба, видео

Регистрация Запомнить меня
Войти через:  Facebook Google Twitter Vk Yandex Mail.ru

Dethklok - Kill You - текст песни, таба, видео

Печатать
Просмотров: 400
Уроки эстрадного вокала в Санкт-Петербурге
Авторы музыки: Brendon Small
Авторы текста: Brendon Small


-----------------------------------------------------------------------------------------
Kill You - Dethklok (revised)
-----------------------------------------------------------------------------------------
Tabbed by: Henry Taylor
****My first tab had a lot of mistakes to I have made a new one  Enjoy (please don't use
other one    Its wrong )****

Standard tuning for all guitars (surprisingly)
There are 3 guitars in this song

Key:
* - Palm mute
 - pinch harmonic
15/ - slide up to 22 or to the next note
12 - slide down to 0 or to next note
12b(15)r12 - bend up to and then release
^ - slight bend up
= - let note ring
~ - Vibrato

Pickle's Drum Solo    

Main riff (on the --2-- parts add a slight pinch harmonic, not a lot though)
		   --2--
Guitar 1		Guitar 2+3 Kicks in and plays along
				       |-|
e|-------------------------------------------------------------------------|
B|-------------------------------------------------------------------------|
G|-------2-------2^~~-----2-------2^~~-----2-------2^~~-----2-------2^~~---|
D|-------2-------2^~~-----2-------2^~~-----2-------2*~~-----2-------2^~~---|
A|---0-0---0-0-0------0-0---0-0-0------0-0---0-0-0------0-0---0-0-0--------|
E|-------------------------------------------------------------------------|
     * *   * * *      * *   * * *      * *   * * *      * *   * * *
Bridge 1: (guitars 1, 2, 3)
e|-------------------------------------------------------------------------|
B|-------------------------------------------------------------------------|
G|------5-------5^~~-----------------------2-------2^~~-----2-------2^~~---|
D|------5-------5^~~-----5-------5^~~------2-------2^~~-----2-------2^~~---|
A|--3-3---3-3-3----------5-------5^~~--0-0---0-0-0------0-0---0-0-0--------|
E|-------------------3-3---3-3-3-------------------------------------------|
    * *   * * *      * *   * * *       * *   * * *      * *   * * *

e|----------------------------------------------------------------|
B|----------------------------------------------------------------|
G|------5-------5^~~-----------------------2-------2^~~-----2-----|
D|------5-------5^~~-----5-------5^~~------2-------2^~~-----2-----|
A|--3-3---3-3-3----------5-------5^~~--0-0---0-0-0------0-0---0---|
E|-------------------3-3---3-3-3----------------------------------|
    * *   * * *      * *   * * *       * *   * * *      * *   *

Bridge 2(spaced for clarity when in unison, guitar 3 can play eather):

    Let ring then slide	     Let ring then slide
Guitar 1    |-|			       |-|
e|------------------------------------------------------------------------|
B|-18-18-18-17----------------------15-15-15------------------------------|
G|-17-17-1716--------------------14-14-14-14---------------------------|
D|-15-15-1514--------------------12-12-12-14------------------------|
A|-------------------------------------------12--0-0-0-0-0-0-0-0-0-0---|
E|---------------8-8-8-8-8-8-8-8-8-8--------------------------------------|
 |		  * * * * * * * * * *		       * * * * * * * * * *  |
 |                                                                       |
 |                                                                       |
 |Guitar 2:		 					             |
e|------------------------------------------------------------------------|
B|------------------------------------------------------------------------|
G|-10-10-109----------------------7-7-7-------------------------------|
D|-10-10-109----------------------7-7-7--7-------------------------|
A|-8--8--87----------------------5-5-5--7---0-0-0-0-0-0-0-0-0-0---|
E|----------------8-8-8-8-8-8-8-8-8-8--------5-------------------------|
		   * * * * * * * * * *               * * * * * * * * * *

Guitar 1
e|---------------------------------------------------|
B|-18-18-1817--------------------15-15-15---------|
G|-17-17-1716--------------------14-14-14-14------|
D|-15-15-1514--------------------12-12-12-14---|
A|-------------------------------------------12---|
E|---------------8-8-8-8-8-8-8-8-8-8-----------------|
 |		  * * * * * * * * * *
 |
 |
 |Guitar 2:
e|--------------------------------------------------|
B|--------------------------------------------------|
G|-10-10-109----------------------7-7-7---------|
D|-10-10-109----------------------7-7-7--7---|
A|-8--8--87----------------------5-5-5--7---|
E|----------------8-8-8-8-8-8-8-8-8-8--------5---|
                  * * * * * * * * * *
Both guitars
e|-------------------------------------------------------------------------|
B|-------------------------------------------------------------------------|
G|-------2-------2^~~-----2-------2^~~-----2-------2^~~-----2-------2^~~---|
D|-------2-------2^~~-----2-------2^~~-----2-------2^~~-----2-------2^~~---|
A|---0-0---0-0-0------0-0---0-0-0------0-0---0-0-0------0-0---0-0-0--------|
E|-------------------------------------------------------------------------|
     * *   * * *      * *   * * *      * *   * * *      * *   * * *

and then this again:
Guitar 1		Guitar 2+3 Kicks in and plays along
				       |-|
e|-------------------------------------------------------------------------|
B|-------------------------------------------------------------------------|
G|-------2-------2^~~-----2-------2^~~-----2-------2^~~-----2-------2^~~---|
D|-------2-------2^~~-----2-------2^~~-----2-------2^~~-----2-------2^~~---|
A|---0-0---0-0-0------0-0---0-0-0------0-0---0-0-0------0-0---0-0-0--------|
E|-------------------------------------------------------------------------|
     * *   * * *      * *   * * *      * *   * * *      * *   * * *
Bridge 1: (guitars 1, 2, 3)
e|-------------------------------------------------------------------------|
B|-------------------------------------------------------------------------|
G|------5-------5^~~-----------------------2-------2^~~-----2-------2^~~---|
D|------5-------5^~~-----5-------5^~~------2-------2^~~-----2-------2^~~---|
A|--3-3---3-3-3----------5-------5^~~--0-0---0-0-0------0-0---0-0-0--------|
E|-------------------3-3---3-3-3-------------------------------------------|
    * *   * * *      * *   * * *       * *   * * *      * *   * * *

e|----------------------------------------------------------------------|
B|----------------------------------------------------------------------|
G|------5-------5^~~-----------------------2-------2^~~-----2-------2---|
D|------5-------5^~~-----5-------5^~~------2-------2^~~-----2-------2---|
A|--3-3---3-3-3----------5-------5^~~--0-0---0-0-0------0-0---0-0-0-----|
E|-------------------3-3---3-3-3----------------------------------------|
    * *   * * *      * *   * * *       * *   * * *      * *   * * *

Bridge 3(Guitars2+3)
e|-------------------------------------------------------------|
B|-------------------------------------------------------------|
G|-------------------------------------------------------------|x2
D|-8---7---8-----7-----6---7-------6---6---6-------4-4444444---|
A|-8---7---8-----7-----6---7-------6---6---6-------4-4444444---|
E|-6-6-5-5-6-6-6-5-5-5-4-4-5-5-5-5-4-4-3-3-4-4-4-4-3-3333333---|
     *   *   * *   * *   *   * * *   *   *   * * *

rhythm to the solo (guitar 3):

The first rhythm:
e|-----------------------|
B|-----------------------|
G|-----2-------2^~~~-----|and repeat
D|-----2-------2^~~~-----|
A|-0-0---0-0-0-----------|
E|-----------------------|
   * *   * * *

Second rhythm (guitar 3):
e|------------------------------------------------------------------------|
B|-18-18-1817--------------------15-15-15------------------------------|
G|-17-17-1716--------------------14-14-14-14---------------------------|
D|-15-15-1514--------------------12-12-12-14------------------------|and repeat
A|-------------------------------------------12--0-0-0-0-0-0-0-0-0-0---|
E|---------------8-8-8-8-8-8-8-8-8-8--------------------------------------|
                 * * * * * * * * * *                * * * * * * * * * *
Solo(lead) w/ first rhythm

Guitar 1:
e|-------------------------------------------------------------------------------------|
B|------------------------------------13~~~----17b(18)r17-17-15-13-------15b(16)r15-15-|
G|--12b(13)r-14141414-14-12/14--141414-----------------------------14~~~---------------|
D|-------------------------------------------------------------------------------------|
A|-------------------------------------------------------------------------------------|
E|-------------------------------------------------------------------------------------|

**The notes in brackets is guitar 2's harmony part**
--------------------------------------------------(8/10/12/13/15/17-19/20)---|
-13-10-------8/108--6/86--4/65--1/31-1-3-11-33-1/-3/5/6/8/10/12-13/18~~~-|
-------12~~~-----------------------------------------------------------------|
-----------------------------------------------------------------------------|
-----------------------------------------------------------------------------|
-----------------------------------------------------------------------------|
		                      (Hold until end of Guitar 1's part)
Guitar 2[Second rhythm starts now]:             |-----------------|
e|----------------------------------------------------------------|
B|--19-18-19-18-19-18-19-18-19-18-19-18-------19-18=============--|
G|--------------------------------------16-17---------------------|
D|----------------------------------------------------------------|
A|----------------------------------------------------------------|
E|----------------------------------------------------------------|

Guitar 1:
e|---------------------------------------------------------------|
B|-13~~~-13--10--------------------------------------------------|
G|--------------12-----10----------------------------------------|
D|---------------------------14---1210/12-14~~~~----------------|
A|---------------------------------------------------------------|
E|---------------------------------------------------------------|

Guitar 2:
e|-15/17-15----------------------------------------|
B|---------18-17-15/1712--------------------------|
G|--------------------------------14-16-17~~~~-----|
D|------------------------14-15-7------------------|
A|-------------------------------------------------|
E|-------------------------------------------------|

Guitar 1:
Hit this note while still bending
          |-|
e|-10b(12)10r10-8--------------------------|
B|----------------10-8---------------------|
G|---------------------9-------5/7-6~~~~---|
D|-----------------------7-----------------|
A|-------------------------7---------------|
E|---------------------------8-------------|

(The stuff that is in brackets is guitar 2)
e|--------------------------------------------------------------------|
B|--11br-11br-11br-11br-(12br-12br-12br-12br)-14br-14br-14br-14br-13-|
G|--------------------------------------------------------------------|
D|--------------------------------------------------------------------|
A|--------------------------------------------------------------------|
E|--------------------------------------------------------------------|


outro to solo
e|------------------------------------|
B|------------------------------------|
G|-------------------------2--2-------|
D|-------------------------2--2-------|
A|-0-0-0-0-0-0-0-0-0-0-0-0------------|
E|------------------------------------|
   * * * * * * * * * * * *

Bridge 3(all Guitars)
e|---------------------------------------------------------------|
B|---------------------------------------------------------------|
G|---------------------------------------------------------------|-x2
D|-8---7---8-----7-----6---7-------6---6---6-------4--4444444----|
A|-8---7---8-----7-----6---7-------6---6---6-------4--4444444----|
E|-6-6-5-5-6-6-6-5-5-5-4-4-5-5-5-5-4-4-3-3-4-4-4-4-3--3333333----|
     *   *   * *   * *   *   * * *   *   *   * * *
And then on to the main riff (guitar 3)
e|-------------------------------------------------------------------------|
B|-------------------------------------------------------------------------|
G|-------2-------2~~~-----2-------2~~~-----2-------2~~~-----2-------2~~~---|
D|-------2-------2~~~-----2-------2~~~-----2-------2~~~-----2-------2~~~---|
A|---0-0---0-0-0------0-0---0-0-0------0-0---0-0-0------0-0---0-0-0--------|
E|-------------------------------------------------------------------------|
     * *   * * *      * *   * * *      * *   * * *      * *   * * *


Bridge 1: (guitars 3)
e|-------------------------------------------------------------------------|
B|-------------------------------------------------------------------------|
G|------5-------5~~~-----------------------2-------2~~~-----2-------2~~~---|
D|------5-------5~~~-----5-------5~~~------2-------2~~~-----2-------2~~~---|
A|--3-3---3-3-3----------5-------5~~~--0-0---0-0-0------0-0---0-0-0--------|
E|-------------------3-3---3-3-3-------------------------------------------|
 |  * *   * * *      * *   * * *       * *   * * *      * *   * * *
 | fill 1 (guitar 1)
e|--------------------------------------------------------------------|
B|--------------------------------------------------------------------|
G|--------------------------------------------------------------------|
D|--------------------------------------5/7-75-----------------------|
A|----------------------------------------------5/7-75---------------|
E|------------------------------------------------------6/8-86----|

e|----------------------------------------------------------------|
B|----------------------------------------------------------------|
G|------5-------5~~~-----------------------2-------2~~~-----2-----|
D|------5-------5~~~-----5-------5~~~------2-------2~~~-----2-----|
A|--3-3---3-3-3----------5-------5~~~--0-0---0-0-0------0-0---0---|
E|-------------------3-3---3-3-3----------------------------------|
 |  * *   * * *      * *   * * *       * *   * * *      * *   *
 |fill 2 (guitar 1)
e|-------------------------------15b(16)-17171717---15b(16)-17171717----|
B|----------------------------------------------------------------------|
G|----------------------------------------------------------------------|
D|----------------------------------------------------------------------|
A|----------------------------------------------------------------------|
E|----------------------------------------------------------------------|



(these guys kick in on the last note played in the fill)
Let ring then slide	     Let ring then slide
Guitar 1    |-|			       |-|
e|------------------------------------------------------------------------|
B|------------------------------------------------------------------------|
G|-17-17-1716--------------------14-14-14------------------------------|
D|-15-15-1514--------------------12-12-12-14------------------------|
A|-------------------------------------------12--0-0-0-0-0-0-0-0-0-0---|
E|---------------8-8-8-8-8-8-8-8-8-8--------------------------------------|
 |		  * * * * * * * * * *		       * * * * * * * * * *  |
 |                                                                       |
 |                                                                       |
 |Guitar 2:		 					             |
e|------------------------------------------------------------------------|
B|------------------------------------------------------------------------|
G|-10-10-109----------------------7-7-7-------------------------------|
D|-10-10-109----------------------7-7-7--7-------------------------|
A|-8--8--87----------------------5-5-5--7---0-0-0-0-0-0-0-0-0-0---|
E|----------------8-8-8-8-8-8-8-8-8-8--------5-------------------------|
		   * * * * * * * * * *               * * * * * * * * * *

and again...
Guitar 1    |-|			       |-|
e|------------------------------------------------------------------------|
B|-18-18-1817----------------------15-15-15------------------------------|
G|-17-17-1716--------------------14-14-14-14---------------------------|
D|-15-15-1514--------------------12-12-12-14------------------------|
A|-------------------------------------------12--0-0-0-0-0-0-0-0-0-0---|
E|---------------8-8-8-8-8-8-8-8-8-8--------------------------------------|
 |		  * * * * * * * * * *		       * * * * * * * * * *  |
 |                                                                       |
 |                                                                       |
 |Guitar 2:		 					             |
e|------------------------------------------------------------------------|
B|------------------------------------------------------------------------|
G|-10-10-109----------------------7-7-7-------------------------------|
D|-10-10-109----------------------7-7-7--7-------------------------|
A|-8--8--87----------------------5-5-5--7---0-0-0-0-0-0-0-0-0-0---|
E|----------------8-8-8-8-8-8-8-8-8-8--------5-------------------------|
          * * * * * * * * * *		       * * * * * * * * * *

Guitar 1
e|---------------------------------------------------|
B|-18-18-1817----------------------15-15-15---------|
G|-17-17-1716--------------------14-14-14-14------|
D|-15-15-1514--------------------12-12-12-14---|
A|-------------------------------------------12---|
E|---------------8-8-8-8-8-8-8-8-8-8-----------------|
 |		  * * * * * * * * * *
 |
 |
 |Guitar 2:
e|--------------------------------------------------|
B|--------------------------------------------------|
G|-10-10-109----------------------7-7-7---------|
D|-10-10-109----------------------7-7-7--7---|
A|-8--8--87----------------------5-5-5--7---|
E|---------------8-8-8-8-8-8-8-8-8-8-8-------5---|
                 * * * * * * * * * * *


 guitar 1
e|-------------------------------------------------------------------------|
B|-------------------------------------------------------------------------|
G|-------2-------2~~~-----2-------2~~~-----2-------2~~~-----2-------2~~~---|
D|-------2-------2~~~-----2-------2~~~-----2-------2~~~-----2-------2~~~---|
A|---0-0---0-0-0------0-0---0-0-0------0-0---0-0-0------0-0---0-0-0--------|
E|-------------------------------------------------------------------------|
 |    * *   * * *      * *   * * *      * *   * * *      * *   * * *
 | guitar 2
e|-------------------------------------5-5-5-5-5-5-5-5-5-5-5-5-5-5-5-5--|
B|----------------------------------------------------------------------|
G|----------------------------------------------------------------------|
D|----------------------------------------------------------------------|
A|----------------------------------------------------------------------|
E|----------------------------------------------------------------------|

e|-------------------------------------------------------------------------|
B|-------------------------------------------------------------------------|
G|-------2-------2~~~-----2-------2~~~-----2-------2~~~-----2-------2~~~---|
D|-------2-------2~~~-----2-------2~~~-----2-------2~~~-----2-------2~~~---|
A|---0-0---0-0-0------0-0---0-0-0------0-0---0-0-0------0-0---0-0-0--------|
E|-------------------------------------------------------------------------|
 |		              This part doesn't really speed up
 |Guitars 2+3             just compressed for the unity accuracy
 |                           |------------------------------------------------|
e|---8-8-8-8-8-8-8-8-1212121212121212-15151515151515151515151515151515--------|
B|----------------------------------------------------------------------------|
G|----------------------------------------------------------------------------|
D|----------------------------------------------------------------------------|
A|----------------------------------------------------------------------------|
E|----------------------------------------------------------------------------|

Guitars 1+2
e|---------------------------------------------------------------|
B|---------------------------------------------------------------|
G|-2==============-----------------------------------------------|
D|-2==============-----------------------------------------------|
A|-0==============-----------------------------------------------|
E|---------------------------------------------------------------|
 |								    |
 |Guitar 3							    |
e|-15b(17)=========----------------------------------------------|
B|---------------------------------------------------------------|
G|---------------------------------------------------------------|
D|---------------------------------------------------------------|
A|---------------------------------------------------------------|
E|---------------------------------------------------------------|
Let ring

End  
Enjoy 
Feel free to make your own versions based off this one...I really don't cair...

Добавлено: 15.09.2013
Вам также может быть интересно:
Другие материалы по этой песне:
  • Аккорды и текст

Страница создана 12.08.2013
http://primanota.ru/dethklok/kill-you-chords.htm
Привет, Гость.
Предлагаем пройти революционный курс по гитаре.
Подарок от PrimaNota.Ru, забирай!