PrimaNota.ru - самый крупный в мире бесплатный архив песенных текстов, аккордов, табулатур и нот


Destruction - Desecrators Of The New Age - текст песни, таба, видео

Регистрация Запомнить меня
Войти через:  Facebook Google Twitter Vk Yandex Mail.ru

Destruction - Desecrators Of The New Age - текст песни, таба, видео

Печатать
Просмотров: 136
Not 100% correct, but it is better to learn from my mistakes than from nothing. I 
dont bother to write where to use palm mutes. 
Everyone with half their brain can figure that out during listening to the song first time.

Artist: Destruction
Song:   Desecrators (Of The New Age)

tuning - half step down

[riff A]                                                                 
Eb-------------------|------------------|-------------------|------------------|
Bb-------------------|------------------|-------------------|------------------|
Gb-------------------|------------------|-------------------|------------------|
Db---------------3---|--------------3---|---------------3---|-----------------3|
Ab---------------1-2-|--------------1-2-|---------------1-2-|-----------------1|
Eb-0--1-0-0-1-0-0--0-|0--1-0-0-1-0-0--0-|-0--1-0-0-1-0-0--0-|-0--1-0-0-1-0-0-0-|
[end riff A]

[riff B]                                                                 
Eb-------------|-------------|-------------|-------------|
Bb-------------|-------------|-------------|-------------|
Gb-------------|-------------|-------------|-------------|
Db-2-2---2-2---|-2-2---2-2---|-2-2---2-2---|-2-2-----2-2-|
Ab-2-2-2-2-2-2-|-4-4-4-4-4-4-|-3-3-3-3-3-3-|-2-2-2-2-2-2-|
Eb-------------|-------------|-------------|-------------|
[end riff B]

[riff C]                                                                 
Eb------------------------|----------------------|------------------------|----------------------|
Bb------------------------|----------------------|------------------------|----------------------|
Gb------------------------|----------------------|------------------------|----------------------|
Db------------------------|----------------------|------------------------|----------------------|
Ab-3/4)-4-4-4/5)-5-5-5/4)-|----------------------|-3/4)-4-4-4/5)-5-5-5/4)-|----------------------|
Eb-4/5)-5-5-5/6)-6-6-6/5)-|3-3-3---3-3-3---3-3-3-|-4/5)-5-5-5/6)-6-6-6/5)-|0-0-0---0-0-0---0-0-0-|
[end riff C]

[riff D]                                                                 
Eb-------------|-------------|-------------|------------------------------------|
Bb-------------|-------------|-------------|------------------------------------|
Gb-------------|-------------|-------------|------------------------------------|
Db---9--9--7--6|---9--9--7--6|---9--9--7--6|-5------5------5------5------5---5--|
Ab--7--7--5--4-|--7--7--5--4-|--7--7--5--4-|-5------5------5------5------5---5--|
Eb-0--8--6--5--|-0--8--6--5--|-0--8--6--5--|-3--3-3-3--3-3-3--3-3-3--3-3-3-3-3-3|
[end riff D]

[riff E] (during solo)                                                              
Eb-----------------------------------------------------------|
Bb-----------------------------------------------------------|
Gb---------------------------------5-5---5-5-5-5-5-4-4-------|
Db-2-2---2-2-2-2-2-2-2---2-2-2-2-2-5-5---5-5-5-5-5-4-4---5-5-|
Ab-2-2---2-2-2-2-2-2-2---2-2-2-2-2-3-3---3-3-3-3-3-2-2---5-5-|
Eb-0-0---0-0-0-0-0-0-0---0-0-0-0-0---------------------0-3-3-|

[end riff E]

Hope you can find at least something correct or something that can help you :)

Hail to the Kreator, Sodom and Destruction from Slovakia!
Добавлено: 29.04.2012
Другие материалы по этой песне:
  • Аккорды и текст

Страница создана 04.03.2012
http://primanota.ru/destruction/desecrators-of-the-new-age-chords.htm
Привет, Гость.
Предлагаем пройти революционный курс по гитаре.
Подарок от PrimaNota.Ru, забирай!