PrimaNota.ru - самый крупный в мире бесплатный архив песенных текстов, аккордов, табулатур и нот


Destruction - Invincible Force - текст песни, таба, видео

Регистрация Запомнить меня
Войти через:  Facebook Google Twitter Vk Yandex Mail.ru

Destruction - Invincible Force - текст песни, таба, видео

Печатать
Просмотров: 153
DESTRUCTION 's                                                                                
        
                  INVINCIBLE  FORCE  (Infernal Overkill 1985)

Live version - Live without sense

tr.: serkan gunturk (gunturkk@boun.edu.tr) 



E-|---------------------------------------------------------------------------|
B-|---------------------------------------------------------------------------|
G-|---------------------------------------------------------------------------|
D-|-------------------7-9-------------------7-4-------------------------------|
A-|-8-7-0-2-3-0-2-3-0-5-7-8-7-0-2-3-0-2-3-0-5-2-------------------------------|
E-|---------------------------------------------------------------------------|
                                                                               
                                                                               
E-|---------------------------------------------------------------------------|
B-|---------------------------------------------------------------------------|
G-|---------------------------------------------------------------------------|
D-|----10\9--------------10\9-10\9-9--------------10\9-----7-----12-----------|
A-|-----8\7-----10\9------8\7--8\7-7-----10\9------8\7-----5-----10-----------|
E-|-{0}-----{0}--8\7-{0}-------------{0}--8\7-{0}------{0}---0-0--------------|
                                                                               
                                                                               
E-|---------------------------------------------------------------------------|
B-|---------------------------------------------------------------------------|
G-|---------------------------------------------------------------------------|
D-|-----4/5-----4/5-----9-5\4-----4/5-----4/5-----10-9\5----------------------|
A-|-{0}-2/3-{0}-2/3-{0}-7-3\2-{0}-2/3-{0}-2/3-{0}-8--7\3----------------------|
E-|---------------------------------------------------------------------------|
                                                                               
                                                                               
E-|---------------------------------------------------------------------------|
B-|---------------------------------------------------------------------------|
G-|---------------------------------------------------------------------------|
D-|---------6-6---------6-6-5-5-5---------------------------------------------|
A-|-7-8-8-7-4-4-7-8-8-7-4-4-3-3-3-5-5-5-6-6-6-7-7-8---------------------------|
E-|-5-6-6-5-----5-6-6-5-----------3-3-3-4-4-4-5-5-6---------------------------|
                                                                               
                                                                               
E-|---------------------------------------------------------------------------|
B-|---------------------------------------------------------------------------|
G-|---------------------------------------------------------------------------|
D-|---------------------------6-----6-4-6-7-----------------------------------|
A-|-5-----5-----5-----5-5-----4-4-4-4-2-4-5-5-5-5-5---------------------------|
E-|-3-3-3-3-3-3-3-3-3-3-3-----------------------------------------------------|
                                                                               
   Harmony                                                                            
E-|---------------------------------------------------------------------------|
B-|----------------------5---5/8--8-------------------------------------------|
G-|-----------3--3/6--6--12-12/15-15------------------------------------------|
D-|--2/5--5--11-11/14-14------------------------------------------------------|
A-|-10/13-13------------------------------------------------------------------|
E-|---------------------------------------------------------------------------|
                                                                               
    solo                                                                           
E-|---------------------------------------------------------------------------|
B-|---------------------------------------------------------------------------|
G-|---------------------------------------------------------------------------|
D-|---------------------------------------------------------------------------|
A-|-----{4}-{2}-{4}-{5}------{7}-{5}-{7}-{8}----------------------------------|
E-|-{3}-----------------------------------------------------------------------|


gunturkk@boun.edu.tr
http://www.geocities.com/SunsetStrip/Venue/8948
------------------------------------------------------------------------
This is displacer tabs mailing list. For posting tabs/corrections only.
to join the list send message to majordomo@krsu.edu.kg with
subscribe displacer in body.
------------------------------------------------------------------------
Добавлено: 22.05.2012
Другие материалы по этой песне:

Страница создана 18.03.2012
http://primanota.ru/destruction/invincible-force-chords.htm
Привет, Гость.
Предлагаем пройти революционный курс по гитаре.
Подарок от PrimaNota.Ru, забирай!