PrimaNota.ru - самый крупный в мире бесплатный архив песенных текстов, аккордов, табулатур и нот


Destruction - Tormentor - текст песни, таба, видео

Регистрация Запомнить меня
Войти через:  Facebook Google Twitter Vk Yandex Mail.ru

Destruction - Tormentor - текст песни, таба, видео

Печатать
Просмотров: 135
Destruction "Tormentor" from INFERNAL OVERKILL (1985)

Tabbed on 2/4/03 by Nick S.

Riff 1 twice
D-----------3-3-----5-5--------------3-3-----6-6----
A-2-2-------1-1--0--3-3----2-2-------1-1--0--4-4----
E-0-0----------------------0-0----------------------

Riff 2 12x
D--------------3-3--------5-5--------6-6----
A--------------1-1--------3-3--------4-4----
E-0-0-0000-0--------0000-------0000---------

Riff 3 twice
D-0h3p0h2p0h2p0--5-5----0h3p0h2p0h2p0--------
A----------------3-3-------------------3-3---
E--------------------------------------1-1---

Riff 2 4x
Riff 3 twice

Riff 4 7x
D-------------------9------9---
A-0-5-0-2-0-2-0-0---7------7---
E---------------------0000-----

Riff 4 ending
D-------------------4-----------
A-0-5-0-2-0-2-0-0---2-----------

Riff 2 8x
Riff 3 twice
Riff 4 7x then ending

Riff 5 once
D-5--------4--------10--------9--------5--------4---------10---------9-9-9--
A-3-333333-2-222222--8-888888-7-777777-3-333333-2-222222---8-888888--7-7-7--


Riff 6 4x
D-5-4------------------------
A-3-2-222222----4-7----------
E---------------2-5-555555---

Riff 5 once
Riff 6 8x
Riff 2 4x
Riff 4 3x then ending
Riff 2 8x
Riff 3 twice
Riff 4 7x then ending
Riff 2 4x
then the song ends with:
D-9-9-9-9-9-9-9-9-9-9-9-9-9-9-10-10-9-9-9-9-9-9-9-9-9-9-9-9-9-9-7-7-9-9-9-9-
A-7-7-7-7-7-7-7-7-7-7-7-7-7-7--8--8-7-7-7-7-7-7-7-7-7-7-7-7-7-7-5-5-7-7-7-7-

D-9-9-9-9-9-9-9-9-9-9----9/
A-7-7-7-7-7-7-7-7-7-7----7/

Any questions or whatever send me an E-mail Pantera9560@aol.com with the 
subj. "Destruction tabs." Also I would really appreciate some feedback. 
Thrash till death!
     
Добавлено: 11.07.2013
Другие материалы по этой песне:

Страница создана 13.04.2012
http://primanota.ru/destruction/tormentor-chords.htm
Привет, Гость.
Предлагаем пройти революционный курс по гитаре.
Подарок от PrimaNota.Ru, забирай!