PrimaNota.ru - самый крупный в мире бесплатный архив песенных текстов, аккордов, табулатур и нот


Destruction - Upcoming Devastation - таба, видео

Регистрация Запомнить меня
Войти через:  Facebook Google Twitter Vk Yandex Mail.ru

Destruction - Upcoming Devastation - таба, видео

Печатать
Просмотров: 128
-------------------------------------------------------------------------------
                             Upcoming Devastation - Destruction
-------------------------------------------------------------------------------
Tabbed by: Andre Crombach
E-mail: rushaya96@hotmail.de
Just to get you started. I'll post the rest later :-D

Tuning: Standard E

Intro
e|--------------------------------------------------------------------------------------|
B|--------------------------------------------------6p5p4-------------------------------|
G|--------------------------------------------------------5p4p3-------------------------|
D|--------7-9-----------9-10---7-9----------9-------------------------------------------|
A|--------5-7----8------7-8----5-7----------7-------------------------------------------|
E|-0-0-0-------7---8--0------0------0-0-0-0---0-0-0---------------0-0-0-0-0-0-----------|

e|--------------------------------------------------------------------------------------|
B|--------------------------------------------------------------------------------------|
G|--------------------------------------------------------------------------------------|
D|-7-9-------------------------0-3p2------------0-3p2-----------------------------------|
A|-5-7----8------7-------------------3p2--------------3p2-------------------------------|
E|------7---8--5---6-5--0-1-1------------4-1-1-------------4----------------------------|

e|---------------------------------------------------------------------------------------|
B|---------------------------------------------------------------------------------------|
G|---------------------------------------------------------------------------------------|
D|-------7-9----------------------5-4-3-------------5-4-3--------------------------------|
A|-------5-7----8------7-------3--3-2-1----------3--3-2-1------3-2-----------------------|
E|-0-0-0------7---8--5---6-5-0-1---------0-0-0-0-1---------0-0-1-0-----------------------|

e|----------------------------------------------------------------------------------------|
B|----------------------------------------------------------------------------------------|
G|----------------------------------------------------------------------------------------|
D|------5-4-3-------------5-4-3--------------7-6-5--------------7-6-5---------------------|
A|---3--3-2-1----------3--3-2-1-----------6--5-4-3-----------6--5-4-3---------------------|
E|-0-1---------0-0-0-0-1---------0-0-0-0--4---------0-0-0-0--4----------------------------|

e|----------------------------------------------------------------------------------------|
B|----------------------------------------------------------------------------------------|
G|----------------------------------------------------------------------------------------|
D|------------5-4-3----------------5-4----------------------------------------------------|
A|---------3--3-2-1----------4-3---3-2----------------------------------------------------|
E|-0-0-0-0-1---------0-0-0-0-2-1-0--------------------------------------------------------|

Main Riff
e|----------------------------------------------------------------------------------------|
B|----------------------------------------------------------------------------------------|
G|----------------------------------------------------------------------------------------|
D|--------------------------------------------------------3p0-----------------------------|
A|----------------------------------3-2---------------3-2-----3p2p0-----------------------|
E|-0-00-0-0--3-2-3-2--0-00-0-0--3-2------0-00-0-0-3-2----------------0-0-3h4--------------|

e|----------------------------------------------------------------------------------------|
B|----------------------------------------------------------------------------------------|
G|----------------------------------------------------------------------------------------|
D|----------------------------------------------------------------------------------------|
A|----------------5-6---------5-4-4-------------------5---4---3---2-----------------------|
E|-3-3333333-2-3-------5-6--3--------3-3333333-2-3--3---3---3---3-------------------------|



************************************

| /   slide up
| \   slide down
| h   hammer-on
| p   pull-off
| ~   vibrato
| +   harmonic
| x   Mute note
| b   Bend
| pb  Pre-bend
| br  Bend release
| pbr Pre-bend release
| brb Bend release bend

************************************
Добавлено: 15.07.2015
Другие материалы по этой песне:
  • Аккорды и текст

Страница создана 15.07.2015
http://primanota.ru/destruction/upcoming-devastation-chords.htm
Привет, Гость.
Предлагаем пройти революционный курс по гитаре.
Подарок от PrimaNota.Ru, забирай!