PrimaNota.ru - самый крупный в мире бесплатный архив песенных текстов, аккордов, табулатур и нот


Deicide - Holy Deception - аккорды и текст, таба, видео

Регистрация Запомнить меня
Войти через:  Facebook Google Twitter Vk Yandex Mail.ru

Deicide - Holy Deception - аккорды и текст, таба, видео

Печатать
Просмотров: 141
Holy Deception
Deicide
Artist: Deicide
Album: Legion (1992)

Tabbed by Chris Rezendes (dudemcrude@yahoo.com)

Tuning: Standard

Notation Key
v: vibrato
t: tremolo bar
^: bend
.: palm mute
~: trill
p: pull-off
h: hammer-on
x: ghost note
/: slide up
: slide down



Riff 1 x9
e|------------------------------------------------------|
B|------------------------------------------------------|
G|------------------------------------------------------|
D|------------------------------------------------------|
A|------------------------------------------------------|
E|--100000000000222222222111111000000000000--065306530--|
    .......................................  .........

Riff 2 x4
e|-------------------------------------------------------------------------|
B|-------------------------------------------------------------------------|
G|-------------------------------------------------------------------------|
D|----------------------------------------------------------4-3------------|
A|--------------333-222---------222-111---------333-222---4-2-1-4-5---3-2--|
E|--000-000-000---------000-000---------000-000---------0-2-----2-3-0-1-0--|

Riff 3 x2 (Brain dead victims of the holy, preach your holy lies...)
e|--------------------------------------------------|
B|--------------------------------------------------|
G|--------------------------------------------------|
D|---------------------------------------------2-3--|
A|--333222222111--------------333222222111-2-3------|
E|---------------333222111222--------------0-1------|

e|--------------------------------------------------|
B|--------------------------------------------------|
G|--------------------------------------------------|
D|--------------------------------------------------|
A|--333222222111--------------333222222111-2-3-5-4--|
E|---------------333222111222--------------0-1-3-2--|
                         
Repeat Riff 1 x4

Fig. 1 x1
e|------------------|------------------|------------------|------------------|---------------|
B|------------------|------------------|------------------|------------------|---------------|
G|------------------|------------------|------------------|------------------|---------------|
D|-------------4-3--|-------------5-4--|--3---------------|--5---------------|---------------|
A|--2----------2-1--|--2----------3-2--|--1----4-2-1---4--|--3----4-2-1---4--|---------------|
E|--0----0-1-2------|--0----0-1-2------|-------------3-2--|-------------3-2--|--0-0-0-0-0-0--|
         . . .              . . .                             . . . . . .   

Repeat Riff 1 x4
Repeat Riff 2 x4
Repeat Riff 3 x2
Repeat Riff 1 x8
Добавлено: 26.12.2013
Другие материалы по этой песне:
  • Аккорды и текст

Страница создана 07.04.2012
http://primanota.ru/deicide/holy-deception-chords.htm
Привет, Гость.
Предлагаем пройти революционный курс по гитаре.
Подарок от PrimaNota.Ru, забирай!