PrimaNota.ru - самый крупный в мире бесплатный архив песенных текстов, аккордов, табулатур и нот


Deicide - Lurking Among Us - текст песни, таба, видео

Регистрация Запомнить меня
Войти через:  Facebook Google Twitter Vk Yandex Mail.ru

Deicide - Lurking Among Us - текст песни, таба, видео

Печатать
Просмотров: 123
Уроки эстрадного вокала в Санкт-Петербурге
.  - palm mute           /  - slide up to
\  - slide down to       ~  - vibrato
h  - hammer on           b  - Bend
p  - pull off            Suffixes for bend
ph - pinched harmonic    q  - quarter bend t - tap bend
*  - see comment         ^  - Hold bend    r release bend
x  - Stuccatto           ~  - vibrato bend
"  - tremolo note        <> - Trill

Tuning E A D G B E

	Riff A
|-------------------------------------------------|
|-------------------------------------------------|
|---------5/6-5\4----------------5/6-5\4----------|
|---------3/4-3\2-5/6------------3/4-3\2-4/5------|
|-----------------3/4--------------------2/3-3ph~-|
|-0-0-0-0-------------5~-0-0-0-0------------------|
  . . . .                . . . .

	Riff B
|--------------------------------------------------------------|
|--------------------------------------------------------------|
|--------------------------------------------------------------|
|--------------------------------------------------------------|
|---------5/6-4\3-3p2--------------------5/6-4\3-4/5-3h4p3h4p3-|
|-0-0-0-0-3/4-3\1-1p0-5h6p5h6p5--0-0-0-0-3/4-3\1-2/3-----------|
  . . . .                        . . . .

	Riff C
|------------------------------|
|------------------------------|
|------------------------------|
|------------------------------|
|------------------------------|
|0-0-0-0-0-0-0-0-0-3-3-3-5-5-5-|
 . . . . . . . . . . . . . . .

	Riff C Fill (2nd guitar plays octave higher)
|------------------------------------------------|
|------------------------------------------------|
|------------------------------------------------|
|------------------------------------------------|
|------------------------------------------------|
|9-9-9-7-7-7-5-5-5-7-7-7-3-3-3-------------------|
 . . . . . . . . . . . . . . .


	Song Structure:
	 Riff A- X2
	 Riff B- X2
	 Riff C- X3
	 Riff C Fill- X1
       Riff C- X3
	 Riff C Fill- X1
       Riff C- X3
	 Riff C Fill- X1
	 Riff A- X4
	 Riff B- X2
	 Riff C- X3
	 Riff C Fill- X1
       Riff C- X3
	 Riff C Fill- X1
       Riff C- X3
	 Riff C Fill- X1
	 Riff A- X4
	 Riff B- X2
       Riff C- X3
	 Riff C Fill- X1
       Riff C- X3
	 Riff C Fill- X1
	 Riff A- X4
Добавлено: 11.07.2012
Другие материалы по этой песне:
  • Аккорды и текст

Страница создана 05.05.2012
http://primanota.ru/deicide/lurking-among-us-chords.htm
Привет, Гость.
Предлагаем пройти революционный курс по гитаре.
Подарок от PrimaNota.Ru, забирай!