PrimaNota.ru - самый крупный в мире бесплатный архив песенных текстов, аккордов, табулатур и нот


Deicide - Satan Spawn The Caco-daemon - аккорды и текст, таба, видео

Регистрация Запомнить меня
Войти через:  Facebook Google Twitter Vk Yandex Mail.ru

Deicide - Satan Spawn The Caco-daemon - аккорды и текст, таба, видео

Печатать
Просмотров: 167
Satan Spawn The Caco-daemon
Deicide
Song: Satan Spawn, the Caco-Daemon
Artist: Deicide
Album: Legion

Tabbed by Chris Rezendes (dudemcrude@yahoo.com)
Date started tab: 6-10-02
Date finished tab: 7-31-02

Tuning: Standard

Notation Key
v: vibrato
t: tremolo bar
^: bend
.: palm mute
~: trill
p: pull-off
h: hammer-on
x: ghost note
/: slide up
: slide down



Intro x1
Gtr. 1
e|---------------|-----------------|------------------|-----------------|
B|---------------|-----------------|------------------|-----------------|
G|---------------|-----------------|---------------3--|-----------------|
D|--1-----1------|-----------------|---------------2--|-----------------|
A|---21----21----|----------3-4-5--|------------------|----------3-4-5--|
E|-----10----10--|----------1-2-3--|----------100-----|----------1-2-3--|

Gtr. 2 
e|---------------|------------------------------------------------------|
B|---------------|------------------------------------------------------|
G|---------------|------------------------------------------------------|
D|---------------|------------------------------------------------------|
A|---------------|------------------------------------------------------|
E|---------------|--00000000000000000000000000000000000000000000000000--|

Gtr. 1
e|-----------------------------|
B|-----------------------------|
G|-----------------------------|
D|----------------1-----1------|
A|----------3-4-5--21----21----|
E|----------1-2-3----10----10--|

Gtr. 2
e|-----------------------------|
B|-----------------------------|
G|-----------------------------|
D|-----------------------------|
A|-----------------------------|
E|--0000000000000000000000000--|


Fig. 1 x4
e|----------------------|-----------------------|---------------------------|
B|----------------------|-----------------------|---------------------------|
G|----------------------|--------------------3--|---------------------------|
D|----------------------|--------------------2--|---------------------------|
A|--2-------------------|--2--------------------|--2------------------------|
E|--0-0000000000-10203--|--0--0000000000-1-0----|--0-00000000000000-102030--|

e|--------------------------------|
B|--------------------------------|
G|--------------------------------|
D|-------------------1-----1------|
A|--2-----------------21----21----|
E|--0-0000000000-102----10----10--|

Fig. 2 x8 (verse)
e|------------------------|
B|------------------------|
G|------------------------|
D|----------4-----6-5-4---|
A|----------2-----4-3-2---|
E|--1-0-2-3---2-3--3-2-1--|
    . . . .   . .  . . .

Riff 1 x4
e|-------------------|-------------------|-------------------|----------------7----|
B|-------------------|-------------------|------5-6----------|------------------7--|
G|-------------------|-------------------|--------------6-7--|--6-7---6-7----------|
D|-------------------|----------1-2-3-4--|------2-3----------|----------------4----|
A|------4-3-0-1-2-3--|------3-2----------|----------1-2-4-5--|--4-5---4-5-------5--|
E|--2-3--------------|--0-1--------------|--0-1--------------|------6-----4-5------|
    . . . . . . . .     . . . . . . . .     . .     . .             .     . .

e|-------------------|
B|-------------------|
G|-------------------|
D|--2-3--------------|
A|------4-5-2-4-0-2--|
E|-------------------|
    . . . . . . . .

Fig. 3 x4 (Evil seed- injected, Daemon freed- the calling)
e|-----------------------------------------------------|
B|-----------------------------------------------------|
G|-----------------------------------------------------|
D|-----------------------------------------------------|
A|-------------------1-----0-----2/3-------------------|
E|--1-0-0-0-0-0-2/3----0-0---0-0------0-0-0-0-0-0-0-0--|
      . .   . .        . .   . .      . . . . . . . .  

e|---------------------------------------------|
B|---------------------------------------------|
G|---------------------------------------------|
D|---------------------------------------------|
A|-------------------1-----0-----2/3-----------|
E|--1-0-0-0-0-0-2/3----0-0---0-0------000-000--|
      . .   . .        . .   . .      

Fig. 4 x4 (Satan spawn, the Caco-daemon...)
e|------------------------------------|
B|------------------------------------|
G|-------------------------3-----4----|
D|-------------------------2-----3----|
A|------------------------------------|
E|--3-0-2-3-1-2-0-1-000000---000---0--|
    . . . . . . . . ......   ...

Riff 2 x2
e|---------------------------|
B|---------------------------|
G|---------------------------|
D|--1-----1-----1-----1------|
A|---21----21----21----21----|
E|-----10----10----10----10--|

Repeat Fig. 2 x8
Repeat Riff 1 x4
Repeat Fig. 3 x4
Repeat Fig. 4 x6
Repeat Riff 2 x4
Repeat Fig. 1 x4

Outro x1
e|----------------------|-----------------------|----------------------|-----------------------|
B|----------------------|-----------------------|----------------------|-----------------------|
G|----------------------|--------------------3--|----------------------|--------------------3--|
D|----------------------|--------------------2--|----------------------|--------------------2--|
A|--2-------------------|--2--------------------|--2-------------------|--2--------------------|
E|--0-0000000000-10203--|--0--0000000000-1-0----|--0-0000000000-10203--|--0--0000000000-1-0----|

e|----------------------|-----------------------|-----------------------------------|
B|----------------------|-----------------------|-----------------------------------|
G|----------------------|--------------------3--|-----------------------------------|
D|----------------------|--------------------2--|-------------------1-----1------2--|
A|--2-------------------|--2--------------------|--2-----------------21----21----2--|
E|--0-0000000000-10203--|--0--0000000000-1-0----|--0-0000000000-102----10----10--0--|
Добавлено: 17.11.2013
Другие материалы по этой песне:

Страница создана 12.07.2012
http://primanota.ru/deicide/satan-spawn-the-caco-daemon-chords.htm
Привет, Гость.
Предлагаем пройти революционный курс по гитаре.
Подарок от PrimaNota.Ru, забирай!