PrimaNota.ru - самый крупный в мире бесплатный архив песенных текстов, аккордов, табулатур и нот


Deicide - Kill The Christians - аккорды и текст, таба, бас-таба, видео

Регистрация Запомнить меня
Войти через:  Facebook Google Twitter Vk Yandex Mail.ru

Deicide - Kill The Christians - аккорды и текст, таба, бас-таба, видео

Печатать
Просмотров: 200
Уроки эстрадного вокала в Санкт-Петербурге
Kill The Christians
Deicide
Song: Kill the Christians
Artist: Deicide
Album: 

Tabbed by Chris Rezendes (dudemcrude@yahoo.com)
Date started tab: 4/23/02
Date finished tab: 4/23/02

Tuning: D# (half step down)

Notation Key
v: vibrato
t: tremolo bar
^: bend
.: palm mute
~: trill
p: pull-off
h: hammer-on
x: ghost note
/: slide up
: slide down



Riff 1
e|---------------------------------------------------------------
B|---------------------------------------------------------------
G|---------------------------------------------------------------
D|---------------------------------------------------------------
A|--------------------------------2222---------------------------
E|--4444-0000-1111-0000-4444-0000------0000----------------------

Fig. 1
e|---------------------------------------------------------------
B|---------------------------------------------------------------
G|---------------------------------------------------------------
D|--------------------4------------------------------------------
A|--6-6---3-3---6-6---2------------------------------------------
E|--4-4-0-1-1-0-4-4-0---0-1--------------------------------------
    . . . . . . . . . . . .

Fig. 2     
    this x3               then this
e|---------------------------|-----------------------------------
B|---------------------------|-----------------------------------
G|---------------------------|-----------------------------------
D|------------------------5--|-----------------------------------
A|---------------3/4------3--|--6---------------6-6-6-6-4--------
E|--000000000000-1/222222----|--44444444444444444-4-4-4----------

    this x3              then this
e|---------------------------|----------------------------------------------------
B|---------------------------|----------------------------------------------------
G|---------------------------|----------------------------------------------------
D|------------------------5--|----------------------------------------------------
A|---------------3-4------3--|--6------------6-6-6-6-4--5------5-5-5-5--3---------
E|--000000000000-1/222222----|--44444444444444-4-4-4----33333333-3-3-3------------

Fig. 3
e|---------------|-----------------------------------------------
B|---------------|-----------------------------------------------
G|---------------|-----------------------------------------------
D|---------------|-----------------------------------------------
A|----5----------|----3------------------------------------------
E|--4---0-4-3-0--|--2---0-2-1-0----------------------------------
        . . . .         . . . .        

Fig. 4
e|---------------------------------------------------------------
B|---------------------------------------------------------------
G|---------------------------------------------------------------
D|---------------------------------------------------------------
A|----5-----4-----3-----2----------------------------------------
E|--4---0-3---0-2---0-1------------------------------------------
        .     .     .

Fig. 4b
e|---------------------------------------------------------------
B|---------------------------------------------------------------
G|---------------------------------------------------------------
D|---------------------------------------------------------------
A|----7-----6-----5-----4----------------------------------------
E|--6---0-5---0-4---0-3------------------------------------------
       .     .     .  

Fig. 4c
e|---------------------------------------------------------------
B|---------------------------------------------------------------
G|---------------------------------------------------------------
D|---------------------------------------------------------------
A|----10-----9-----8-----7---------------------------------------
E|--9----0-8---0-7---0-6-----------------------------------------
         .     .     .


Order of play

Riff 1 x8
Fig. 1 x8
Riff 1 x4
Fig. 2 x1
Riff 1 x8
Fig. 1 x8
Riff 1 x4
Fig. 2 x1
Riff 1 x8
Fig. 3 x3
Fig. 4 x1
Fig. 3 x3
Fig. 4 x2
Fig. 4b x1
Fig. 4c x1
Fig. 3 x3
Fig. 4 x1
Riff 1 x8
Добавлено: 18.02.2014
Другие материалы по этой песне:
  • Аккорды и текст

Страница создана 13.03.2012
http://primanota.ru/deicide/kill-the-christians-chords.htm
Привет, Гость.
Предлагаем пройти революционный курс по гитаре.
Подарок от PrimaNota.Ru, забирай!