PrimaNota.ru - самый крупный в мире бесплатный архив песенных текстов, аккордов, табулатур и нот


Deicide - Christ Dont Care - текст песни, таба, видео

Регистрация Запомнить меня
Войти через:  Facebook Google Twitter Vk Yandex Mail.ru

Deicide - Christ Dont Care - текст песни, таба, видео

Печатать
Просмотров: 80
Band: Deicide
Song: Christ Don't Care
Album: In Torment, In Hell


Code:
Suffixes for bend:
fb - full bend       hb - half bend
qb - quarter bend    t - tap bend
r - release bend

Suffixes for harmonic:
^ - pinched harmonic      n – natural harmonic

Suffixes for mute:
. – palm mute            x – staccato mute
, - light palm mute      ; - heavy palm mute

Other:
/ - slide up to            \ - slide down to       
h - hammer on              p - pull off
" - tremolo note           <> - Trill
* - see comment

Tuning: D G C F A D


Riff 1 (0:00) play twice
|--------------------------------------------------------|
|--------------------------------------------------------|
|--------------------------------------------------------|
|-6"-3"-2"-------------------6"-3"-2"--------------------| gtr 1
|----------4"-------------------------4"-----------------|
|-------------5"-4"-2"-1"-2"-------------5"-4"-2"-1"-2~--|
              .  .  .  .  .              .  .  .  .

|--------------------------------------------------------|
|--------------------------------------------------------|
|--------------------------------------------------------|
|-6"-3"-2"-------------------6"-3"-2"----------------4^--| gtr 2
|----------4"-------------------------4"-----------------|
|-------------5"-4"-2"-1"-2"-------------5"-4"-2"-1"-----|
              .  .  .  .  .              .  .  .  .

Fill 1 (0:11)

Guitar 1
|--------------------------------------------------------------------|
|--------------------------------------------------------------------|
|--------------------------------------------------------------------|
|------------------------------5--6----------------------------------|
|------------------7--6--3--4--3--4-------------------7--6--3--4--8~-|
|-1000444455555555-5--4--1--2--------1000444455555555-5--4--1--2--7~-|
  ................ .  .  .  .  .  .  ................ .  .  .  .

Guitar 2
|--------------------------------------------------------------------|
|--------------------------------------------------------------------|
|--------------------------------------------------------------------|
|------------------------------5--6----------------------------------|
|------------------7--6--3--4--3--4-------------------7--6--3--4--8~-|
|------------------5--4--1--2-------------------------5--4--1--2--7~-|
                   .  .  .  .  .  .                   .  .  .  .

Riff 2a (0:16)
|-------------------------------------------|
|-------------------------------------------|
|-------------------------------------------|
|-------------------------------------------| both gtrs
|---------------------------------33334444--|
|-11111111555555554444222211114444----------|
          ........................

Riff 2b (0:20)
|------------------------------------------|
|------------------------------------------|
|------------------------------------------|
|------------------------------------------| both gtrs
|---------------------------------3333-8~--|
|-11111111555555554444222211114444-----7~--|
          ........................

Riff 2a x 1 (0:23)
Riff 2b x 1 (0:26)
Riff 2a x 1 (0:29)
Riff 2b x 1 (0:32)
Riff 2a x 1 (0:35)
Riff 2b x 1 (0:38)

Riff 3a (0:41)
|--------------------------------------------------------------------|
|------------------------------5^~-------------------------4444-7^~--|
|-------------------------6666---------------------66667777----------|
|-----------------77778888---------2222333300003333------------------|
|-----6666----6666---------------------------------------------------|
|-5555----5555-------------------------------------------------------|

Riff 3b (0:45)
|--------------------------------------------------------------------|
|----------------------------------------------------------44445555--|
|-------------------------77778888---------------------5555----------|
|-----------------77778888-------------------------9999--------------| both
|-----6666----6666---------------------8888----8888------------------| gtrs
|-5555----5555---------------------7777----7777----------------------|

Riff 3a x 1 (0:50)
Riff 3b x 1 (0:55)

Riff 4a (1:00) play 4 times
|-------------------------------------------------|
|-------------------------------------------------|
|-------------------------------------------------|
|-------------------------------------------------| both gtrs
|-7-------6-----3---------7-------6-----3---------|
|---6-5-4---5-4---4-5-6-7---6-5-4---5-4---4-5-6-7-|
  . . . .   . .   . . . .   . . .   . .   . . . .

Riff 4b (1:08) play 4 times
|-------------------------------------------------|
|-5-------4---------------5-------4---------------|
|---3-2-1---2-1-5-1-2-3-4---3-2-1---2-1-5-1-2-3-4-|
|-------------------------------------------------| gtr 1
|-------------------------------------------------|
|-------------------------------------------------|
  . . . .   . .   . . . .   . . .   . .   . . . .

|-------------------------------------------------|
|-------------------------------------------------|
|-------------------------------------------------|
|-------------------------------------------------| gtr 2
|-7-------6-----3---------7-------6-----3---------|
|---6-5-4---5-4---4-5-6-7---6-5-4---5-4---4-5-6-7-|
  . . . .   . .   . . . .   . . .   . .   . . . .

Riff 5 (1:17) play twice
|-------------------------------------|
|-------------------------------------|
|-------------------------------------|
|-6-3-2-------------6-3-2-------------| both gtrs
|-------4-----------------4-----------|
|---------5-4-2-1-2---------5-4-2-1~--|
  . . . . . . . . . . . . . . . .

Riff 1 x 1
Fill 1 x 1
Riff 2a x 1
Riff 2b x 1
Riff 2a x 1
Riff 2b x 1
Riff 2a x 1
Riff 2b x 1
Riff 2a x 1
Riff 2b x 1
Riff 3a x 1
Riff 3b x 1
Riff 3a x 1
Riff 3b x 1
Riff 3a x 1
Riff 3b x 1

Guitar 1 goes into solo

Under solo:
Riff 4a x 1
Riff 4b x 1

Riff 5 x 1
End
Добавлено: 09.11.2013
Другие материалы по этой песне:

Страница создана 05.07.2012
http://primanota.ru/deicide/christ-dont-care-chords.htm
Привет, Гость.
Предлагаем пройти революционный курс по гитаре.
Подарок от PrimaNota.Ru, забирай!