PrimaNota.ru - самый крупный в мире бесплатный архив песенных текстов, аккордов, табулатур и нот


Deicide - Fuck Your God - текст песни, таба, видео

Регистрация Запомнить меня
Войти через:  Facebook Google Twitter Vk Yandex Mail.ru

Deicide - Fuck Your God - текст песни, таба, видео

Печатать
Просмотров: 156
.  - palm mute           /  - slide up to
\  - slide down to       ~  - vibrato
h  - hammer on           b  - Bend
p  - pull off            Suffixes for bend
t  - tap                 f  - full bend    h - half bend
ph - pinched harmonic    q  - quarter bend t - tap bend
*  - see comment         ^  - Hold bend    r release bend
x  - Stuccatto           ~  - vibrato bend
,  - slight palm mute    () - ghost note, sustained note
"  - tremolo note        <> - Trill
AS - Airplane spin scrape

Tunning : Half Step Down. = E Flat.

Note: I would advise listening to the cd for time
signature.  Especially Riff#2.  Any other questions,
comments, email me.

Riff#1.
|---------------------------------------------------------------|
|---------------------------------------------------------------|
|---------------------------------------------------------------|
|---------------------------------------------------------------|
|5--8----5--4----5--7----4--3----3-3-(2)----AS-----5--8----5--4-|
|3--6----3--2----3--5----2--1----1-1-(0)-----------3--6----3--2-|

Riff#1. Continued..
|-------------||
|-------------||
|-------------||
|-------------||
|5--7----4--3-||
|3--5----2--1-||

Transition A.
|-------||
|-------||
|-------||
|-------||
|-------||
|12-\-3-||

Riff#2. Fast tremolo picking/Slight palm mute..(3X)
|-----------------------------------------------------------------|
|-----------------------------------------------------------------|
|-----------------------------------------------------------------|
|-----------------------------------------------------------------|
|"---"---"--------"---"--------"---"---"---"---"--------"---"-----|
|3---1---0--------4---3--------7---6---3---1---0--------4---3---6-|

Riff#2. Continued..
|-------||
|-------||
|-------||
|-------||
|---"---||
|---5---||

Riff#3. Chords played in same time frame as Riff#2.(2X)
|-----------------------------------------------------------------|
|-----------------------------------------------------------------|
|-----------------------------------------------------------------|
|-----------------------------------------------------------------|
|5\3-3---2---2----6---5---5----9---8---5\3-3---2---2----6---5---8-|
|3\1-1---0---0----4---3---3----7---6---3\1-1---0---0----4---3---6-|

Riff#2. Continued..
|-------||
|-------||
|-------||
|-------||
|---7---||
|---5---||

Repeat Riff#2.(2X)
Repeat Riff#3.(2X)

Riff#4A.  Chorus. (Guitar 1). Fast. (3X)
        (Play 3X)             *=on last time, don't play
|---------------------------|---------------------------||
|---------------------------|---------------------------||
|---------------------------|---------------------------||
|----------------6----------|-------------------------*-||
|4-4-6-6-3-3-4-4-6-----6--5-|3-3-5-5-1-1-3-3-0-----6--5-||
|-------------------0--4--3-|-------------------0--4--3-||
 . . . . . . . .             . . . . . . . .

Riff#4B.  Chorus. (Guitar 2).
         (Play 3X)
|---------------------------|---------------------------||
|---------------------------|---------------------------||
|---------------------------|---------------------------||
|---------------------------|---------------------------||
|----------------------6--5-|3-3-5-5-1-1-3-3-0-----6--5-||
|-------------------0--4--3-|-------------------0--4--3-||

Both guitars play Riff#4A.(3X)

Riff#5. Solo Riff. Fast palm muting. (4X)
|--------------------------------------------------------------------|
|--------------------------------------------------------------------|
|--------------------------------------------------------------------|
|--------------------------------------------------------------------|
|----------------5-----------------4-----------------6---------------|
|3-3-3-3-3-3-3-3---2-2-2-2-2-2-2-2---3-3-3-3-3-3-3-3---1-1-1-1-1-1-1-|
 . . . . . . . .   . . . . . . . .   . . . . . . . .   . . . . . . .

Riff#5. Continued..
|--||
|--||
|--||
|--||
|--||
|1-||
 .

Repeat Riff#1.(1X)

Transition B. Fast palm muting.
|--------------------------------------||
|--------------------------------------||
|--------------------------------------||
|--------------------------------------||
|3-2-----------------------------------||
|1-0---0-0-0-0-0-0-0-0-0-0-0-0-0-0-0-0-||
       . . . . . . . . . . . . . . . .

Riff#6. Fast/Palm Muting.(3X)
|------------------------------------------------------------------|
|------------------------------------------------------------------|
|------------------------------------------------------------------|
|------------------------------------------------------------------|
|5/8-------5\4-------5/7-------4\3-------3-------------------------|
|3/6-0-0-0-3\2-0-0-0-3/5-0-0-0-2\1-0-0-0-1-0-0-0-0-0-0-0-0-0-0-0-0-|
     . . .     . . .     . . .     . . .   . . . . . . . . . . . .

Riff#6.  Continued..
|--------||
|--------||
|--------||
|--------||
|--------||
|0-0-0-0-||
 . . . .

Transition C.
|------------------------------||
|------------------------------||
|------------------------------||
|------------------------------||
|5--8----5--4----5--7----4--3--||
|3--6----3--2----3--5----2--1--||

Repeat Transition A.
Repeat Riff#2.(3X)
Repeat Riff#3.(2X)
Repeat Riff#2.(2X)
Repeat Riff#3.(2X)
Repeat Riff#4.(3X)
Repeat Riff#5.(4X)
Repeat Riff#1.(1X)

END.
Добавлено: 24.03.2012
Другие материалы по этой песне:

Страница создана 09.03.2012
http://primanota.ru/deicide/fuck-your-god-chords.htm
Привет, Гость.
Предлагаем пройти революционный курс по гитаре.
Подарок от PrimaNota.Ru, забирай!