PrimaNota.ru - самый крупный в мире бесплатный архив песенных текстов, аккордов, табулатур и нот


Deicide - Creatures Of Habit - аккорды и текст, таба, видео

Регистрация Запомнить меня
Войти через:  Facebook Google Twitter Vk Yandex Mail.ru

Deicide - Creatures Of Habit - аккорды и текст, таба, видео

Печатать
Просмотров: 142
Creatures Of Habit
Deicide
Song: Creatures of Babit
Artist: Deicide
Album: Serpents of the Light (1997)
 
Tabbed by Chris Rezendes (dudemcrude@yahoo.com)

Tuning: Balf step down

Notation Key
v: vibrato
t: tremolo bar
^: bend
.: palm mute
~: trill
p: pull-off
h: hammer-on
x: ghost note
/: slide up
: slide down


Riff 1 x4
e|----------------------------------------|
B|----------------------------------------|
G|----------------------------------------|
D|----------------------------------------|
A|--22222222------------------------------|
E|-----------2222-5555-00000000-33333333--|

Fig. 1 x4
e|-------------------------------------------------------|
B|-------------------------------------------------------|
G|-------------------------------------------------------|
D|--9------------8------------7------------6-------------|
A|--7------------6------------5------------4-------------|
E|--7-000000-023-6-000000-023-5-000000-023-4-000000-023--|

Riff 2 x4 (Lives are worth nothing unless you have something to gain...)
e|----------------------------------------------------|
B|----------------------------------------------------|
G|----------------------------------------------------|
D|----------------------------------------------------|
A|----------------------------------------------------|
E|--555555-855555-366666-144444-00000000000000000000--|

Riff 3 x4 (Eye for an eye, applaud when you die...)
e|--------------------------------|
B|--------------------------------|
G|--------------------------------|
D|--------------------------------|
A|---------------------333333555--|
E|--0222-555555-000111------------|

Riff 4 x2 (Creatures of habit, to cease to exist...)
e|----------------------------------------------------------------|
B|----------------------------------------------------------------|
G|----------------------------------------------------------------|
D|----------------------------------------------------------------|
A|--3--------2---1------0-----------------------------------------|
E|---5555555---3--22222--11111--0-000-000-000-000-000-000-000-00--|

e|----------------------------------------------------------------|
B|----------------------------------------------------------------|
G|----------------------------------------------------------------|
D|----------------------------------------------------------------|
A|--3--------2---1------0-----------------------------------------|
E|---5555555---3--22222--11111--0-000-000-000-141-000-000-000-00--|

Repeat Fig. 1 x4
Repeat Riff 2 x4
Repeat Riff 3 x4
Repeat Riff 4 x2
Repeat Fig. 1 x4
Добавлено: 13.09.2013
Другие материалы по этой песне:

Страница создана 22.02.2012
http://primanota.ru/deicide/creatures-of-habit-chords.htm
Привет, Гость.
Предлагаем пройти революционный курс по гитаре.
Подарок от PrimaNota.Ru, забирай!